Guitaretab - guitar tabs
Song name
# A B C D E F G H I J K L M N O P Q R S T U V W X Y Z

Lagwagon - Mr Coffee tab

MR. COFFEE - Lagwagon

Transcribed By: Paul Borejsza : limited@interlynx.net 

     INTRO:
e|--------------------------------------------------------------------|
B|-----4------4-------4-----4--------4-------4-------3----1-3---------|
G|--------------------------------------------------------------------|
D|--------------------------------------------------------------------|
A|-2-------2-----2----------------------------------------------------|
E|-----------------4-----4----4--3-------3------3-2-------------------|

e|--------------------------------------------------------------------|
B|-----4------4-------4-----4--------4-------4------------------------|
G|--------------------------------------------------------------------|
D|--------------------------------------------------------------------|
A|-2------2-2----2---------------------------------5--5-5-------------|
E|-----------------4-----4-4---4--3-------3------3-2--2-2-------------|

     GUITAR 1&2
     VERSE 1: Morning has broken...
e|--------------------------------------------------------------------|
B|--------------------------------------------------------------------|
G|--------------------------------------------------------------------|
D|-------------------------9\8\4--------------------------------------|
A|-9-9--9--9-9-----6-6--6--7\6\2---4-4--4--/--8\6/8-9-9--9-9----------|
E|-7-7--7--7-7-----4-4--4----------2-2--2--/--6\4/6-7-7--7-7----------|

e|--------------------------------------------------------------------|
B|--------------------------------------------------------------------|
G|--------------------------------------------------------------------|
D|-------------------------9\8\4--------------------------------------|
A|-9-9--9--9-9-----6-6--6--7\6\2---4-4--4--/--8\6/8-9-9--9-9----------|
E|-7-7--7--7-7-----4-4--4----------2-2--2--/--6\4/6-7-7--7-7----------|

 Chorus: Here I come to save the day...
e|--------------------------------------------------------------------|
B|--------------------------------------------------------------------|
G| -------------------9-----------------------------------------------|
D|-4--4-/-6-6---8-8---9--9---8/-9-9--9-9---11-x--4-4---4---x-x--------|
A|-2--2-/-4-4-/-6-6-/-7--7---6/-7-7--7-7---9--x--2-2---2---x-x--------|
E|--------------------------------------------------------------------|

e|--------------------------------------------------------------------|
B|--------------------------------------------------------------------|
G| -------------------9-----------------------------------------------|
D|-4--4-/-6-6---8-8---9--9---8/-9-9--9-9---11-x--4-4---4--------------|
A|-2--2-/-4-4-/-6-6-/-7--7---6/-7-7--7-7---9--x--2-2---2--------------|
E|--------------------------------------------------------------------|

    VERSE 2: AH, Ha I'm wired..
     

     REPEAT CHORUS

e|--------------------------------------------------------------------|
B|--------------------------------------------------------------------|
G|--------------------------------------------------------------------|
D|---9-9--x--6-6--x--8-8-x--4-----------------------------------------|
A|---7-7--x--4-4--x--6-6-x--2-----2-4-6-------------------------------|
E|-----------------------------(palm mute)----------------------------|

e|--------------------------------------------------------------------|
B|--------------------------------------------------------------------|
G|--------------------------------------------------------------------|
D|---9-9--x--6-6--x--8-8-x--4-----------------------------------------|
A|---7-7--x--4-4--x--6-6-x--2-----------------------------------------|
E|--------------------------------------------------------------------|

e|--------------------------------------------------------------------|
B|--------------------------------------------------------------------|
G|--------------------------------------------------------------------|
D|---9-9--x--6-6--x--8-8-x--4-----------------------------------------|
A|---7-7--x--4-4--x--6-6-x--2-----2-4-6-------------------------------|
E|-----------------------------(palm mute)----------------------------|
[ Tab from: http://www.guitaretab.com/l/lagwagon/40562.html ]
e|--------------------------------------------------------------------|
B|--------------------------------------------------------------------|
G|--------------------------------------------------------------------|
D|---9-9--x--6-6--x--8---6---4----------------------------------------|
A|---7-7--x--4-4--x--6---4---2----------------------------------------|
E|--------------------------------------------------------------------|

     Guitar 1: Play Palm Muted, then go to a muted low E chord 
     which becomes less muted at the end
e|--------------------------------------------------------------------|
B|--------------------------------------------------------------------|
G|--------------------------------------------------------------------|
D|--4---4-4------4--4-4-----------------------------------------------|
A|--2---2-2--4---2--2-2--4-----2-2-2-2-2-2-2-2------------------------|
E|-----------2-----------2-----0-0-0-0-0-0-0-0------------------------|

     Guitar 2: Play notes sharp and quick
e|--------------------------------------------------------------------|
B|---------9--------------9------------9--------------9---------------|
G|-------8----11--------8----11------8----11--------8---11---9~-~-~---|
D|---9--------------/9------------9------------/9-9-------------------|
A|--------------------------------------------------------------------|
E|--------------------------------------------------------------------|

e|--------------------------------------------------------------------|
B|--------------------------------------------------------------------|
G|--(9)~-~-~---9\-----------------------------------------------------|
D|--------------------------------------------------------------------|
A|-----------------------------------2-2-2-2-2-2-2-2------------------|
E|-----------------------------------0-0-0-0-0-0-0-0------------------|

     
e|--------------------------------------------------------------------|
B|--------------------------------------------------------------------|
G|--------------------------------------------------------------------|
D|--------------------------------------------------------------------|
A|--2-4-6--4-6-8--9-9--9-9--9-9---------------------------------------|
E|--0-2-4--2-4-6--7-7--7-7--7-7---------------------------------------|

     GUITAR 1 Turning your pick on its side helps to be able to 
     pick this fast
e|--------------------------------------------------------------------|
B|--------------------------------------------------------------------|
G|--------------------------------------------------------------------|
D|--------------------------------------------------------------------|
A|--2-2-2-2-2-2-2--2-2--2--/9--8--9----11---9-8---2-2-2-2-2-2-2--2----|
E|--------------------------------------------------------------------|

     GUITAR 1&2
e|--------------------------------------------------------------------|
B|--------------------------------------------------------------------|
G|--9-----------------------------------------------------------------|
D|--9-------9--8--9-----11---9-\--------4-----4-----4----4------------|
A|--7-------7--6--7-----9----7-\--p.m.2-2---2-2---2-2--2-2------------|
E|--------------------------------------------------------------------|

e|--------------------------------------------------------------------|
B|--------------------------------------------------------------------|
G|--9-----------------------------------------------------------------|
D|--9-------9--8--9-----11---9----------4---4-4------4--4-4-----------|
A|--7-------7--6--7-----9----7----------2---2-2--4---2--2-2--4--------|
E|--------------------------------------------------2-----------2--------|

               OUTRO, GUITAR 2:
e|--------------------------------------------------------------------|
B|--------------------------------------------------------------------|
G|-----------------------11--11---11-----8----------------------------|
D|--2---------------------------------11----9-------------------------|
A|--2-----------------------------------------------------------------|
E|--0-----------------------------------------------------------------|
Related for Mr Coffee tab
Mr Coffee chords by Lagwagon