Guitaretab - guitar tabs
Song name
# A B C D E F G H I J K L M N O P Q R S T U V W X Y Z

Lagwagon - I Must Be Hateful tab

Song: I Must Be Hateful
Band: Lagwagon
Album: Blaze

Main Riff
e|-------------|   plays this X amount of times for the intro
b|---4-4--2-5--|
g|--4-4-4------|
d|-------------|
a|-------------|
e|-------------|

Intro into Verse
e|-------------------------------|
b|------2--------2--------2-2-5--|
g|---3-3-3-3--3-3-3-3--3-3-3-----|
d|--4-4---4--4-4---4--4-4--------|
a|-------------------------------|
e|-------------------------------|

Main Riff x8

Verse
e|-----------------------------------|
b|-----------------------------------|
g|------------------999999999999999--|
d|--66666666666666--999999999999999--|
a|--66666666666666--777777777777777--|
e|--44444444444444-------------------|

main riffx8
verse

Verse into Pre Chorus
e|-------------------------------------------------|
b|--00-70-50-90-0-00-70-50-90-0-00-70-50-90--------|
g|-------------------------------------------44----|
d|-------------------------------------------4444--|
a|-------------------------------------------2244--|
e|---------------------------------------------22--|
[ Tab from: http://www.guitaretab.com/l/lagwagon/49100.html ]
Pre Chorus
e|------------------------------------------------------------|
b|------------------------------------------------------------|
g|--44----88----99999999--------44----88----99999999----------|
d|--4444--8866--99999999-4-4444-4444--8866--99999999-4444444--|
a|--2244--6666--77777777-4-4444-2244--6666--77777777-4444444--|
e|----22----44-----------2-2222---22----44-----------2222222--|
pm                         ....

Chorus (its always my fault)
e|------------------------------------------------------------------>
b|------------------------------------------------------------------>
g|----------------444444----------------------444444-888888-999999-->
d|--222222-444444-444444-444444-222222-444444-444444-888888-999999-->
a|--222222-444444-222222-444444-222222-444444-222222-666666-777777-->
e|--000000-222222--------222222-000000-222222----------------------->

e|-------------------------------------------------------|
b|-------------------------------------------------------|
g|--111111111111----------------------444444-------------|
d|--111111111111-999999-444444-666666-444444-2*let-ring--|
a|---9-9-9-9-9-9-999999-444444-666666-222222-2-----------|
e|---------------777777-222222-444444--------0-----------|

main riff x6
verse
verse/prechorus
prechourus
chorus

outro x??
e|---------------|
b|--004-02-05-00-|
g|---------------|
d|---------------|
a|---------------|
e|---------------|

main riffx?
intro/verse
main riff

end on B
Related for I Must Be Hateful tab
×
Best way to learn
"I Must Be Hateful"