Song name
# A B C D E F G H I J K L M N O P Q R S T U V W X Y Z

Lagwagon - Status Pools tab

Verse (both guitars)

part 1
|------------------------------------------------||
|------------------------------------------------|| play twice through
|---------------xx-4-9xx5xx-----xx---------------||
|-----5--------0xx-4-9xx5xx5-4-2xx0h2p0----------||
|-----5----0-2--xx-2-7xx3xx-----xx------2--------||
|-\\\-3---3--------------------------------------||


part 2

|------------------------------------------------------------------------------------||
|-------------------mmmmmmmm---------------------------------------------------------||
|---mmmmmmmm-4-9xx3-55555555-9-7-4-----------xx-4-9xx5xx-----xx--------5~----5-5-4-2-||
|-5-55555555-4-9xx3-55555555-9-7-4-5--------0xx-4-9xx5xx5-4-2xx0h2p0---5~----5-5-4-2-||
|-5-55555555-2-7xx3-33333333-7-5-2-5----0-2--xx-2-7xx3xx-----xx------2-3~----3-3-2-0-||
|-3-33333333-----------------------3---3---------------------------------------------||


Chorus - play through twice

left guitar

|-------------------------------------------------------------------------||
|-------------------------------------------------------------------------||
|-----5-4-x-7---7-7-7-----5-4-x-7---7-7-7-----5-4-x-7-----7---5~-5555-4-2-||
|-5-x-3-2-x-7-x-7-7-7-5-x-3-2-x-7-x-7-7-7-5-x-3-2-x-7-x-5-7-x-5~-5555-4-2-||
|-5-x-3-2-x-5-x-5-5-5-5-x-3-2-x-5-x-5-5-5-5-x-3-2-x-5-x-5-5-x-3~-3333-2-0-||
|-3-x-------5-x-5-5-5-3-x-------5-x-5-5-5-3-x-------5-x-3-5-x-------------||
                                                                      \  /
                                     only play these two chords on first time
right guitar                      through, when chorus is played the 2nd time
                                     play a D chord instead of these 2 chords
                                                                      /  \
|-------------------------------------------------------------------------||
|-------------------------------------------------------------------------||
|-----5-4-x-7---7-7-7-----5-4-x-7---7-7-7-----5-4-x-7-----7---5~-5555-4-2-||
|-5-x-3-2-x-7-x-7-7-7-5-x-3-2-x-7-x-7-7-7-5-x-3-2-x-7-x-5-7-x-5~-5555-4-2-||
|-5-x-3-2-x-5-x-5-5-5-5-x-3-2-x-5-x-5-5-5-5-x-3-2-x-5-x-5-5-x-3~-3333-2-0-||
|-3-x---------x-------3-x---------x-------3-x---------x-3-5-x-------------||


Middle 8

|-----------8---------------||
|-----9------8--------------|| play through 4 times.
|---9--9--9---9---7---------|| on last time through chuck some
|---9---9-10----5-7---------|| palm muting in on the D chord
|---7-----10----5-5---------||
|---------8-----3-----------||


Solo (2 guitars arranged for 1 - playing in harmony)

Rhythm plays verse throughout

|----------------------------------------------------------------||
|----12-121212--------------------------9------------------------||
|----12-121212-11-9-----7h9p7------9-11-9-12-11-9-11-------------||
|-/12--------------12--9-----10-9-10-12--------------------------||
|----------------------------------------------------------------||
|----------------------------------------------------------------||


|--------------------------------------------------------------------------------||
|----12-121212------------------------------------------8p7h8p7/15-14-12-14-15~--||
|----12-121212-11-9-----7h9p7------9p7-h9p7-11-p9h11-p9-9p7h9p7-12-11-9--11-12~--||
|------------------12--9-----10-9-10p9h10p9-12p10h12p10--------------------------||
|--------------------------------------------------------------------------------||
|--------------------------------------------------------------------------------||


Then play chorus again

Bridge:

both guitars

|-------------------------------------------------7-7-7-7-3-3-3-3---------------------------------------------||
|-------------------------------------------------8-8-8-8-5-5-5-5---------------------------------------------||
|--------7-8--------------99-9999-55-5555---------9-9-9-9-5-5-5-5----------7-7-7777--9-5---7-5*----5-5-4-2----||
|-5----5-7-8-101010101010-99-9999-55-5555-5-5-7-8-9-9-9-9-5-5-5-5-5-5-5555-7-7-7777--9-5-5-7-5-----5-5-4-2-5--||
|-5----5-5-6-7-7-7-7-7-7--77-7777-33-3333-3-4-5-6-7-7-7-7-3-3-3-3-5-5-5555-5-5-5555--7-3-5-5-3-----3-3-2-0-5--||
|-3----3------------------------------------------\---------------3-3-3333--------/------3-----------------3--||
                                                         play through twice

* here right guitar plays octave chord on 7th fret of A string


Last verse: quiet at start, guitar comes in just before 'nice frame for the way you see yourself'

|-------------------------------------------------------------------------||
|-------------------------mmmmmmmm----------------------------------------||
|-5-------mmmmmmmm-4-9xx5-55555555-9-7-4-5------mmmmmmmmmmmmmmmm----------||
|-5-----5-55555555-4-9xx5-55555555-9-7-4-5------5555555544442222-5~-------||
|-3-<<<-5-55555555-2-7xx3-33333333-7-5-2-3------3333333322220000-5~-------||
|---<<<-3-33333333-----------------------------------------------3~-------||

| /  slide up
| \  slide down
| h  hammer-on
| p  pull-off
| ~  vibrato
| +  harmonic
| x  Mute note
===============================================================================
Tap to rate this tab
 
# A B C D E F G H I J K L M N O P Q R S T U V W X Y Z