Song name
# A B C D E F G H I J K L M N O P Q R S T U V W X Y Z

Lagwagon - Coconut Live tab

Band:  Lagwagon
Title: Coconut (Live)
Album: Live in a Dive

---------------------------------------------------------
Tabbed by Chris W.(LCPD@gmx.at)

Date: July 13, 2005

Comments and stuff like that:

>>Please e-mail me all shit you want! :)<<
---------------------------------------------------------

(Please listen to the song for the correct rythmus.
Because itīs very very difficult to tab it right.)

This x7 means: Do this powerchord normal but donīt press it as normal.
     x7        Lie only your fingers soft on the saits.
     x5

Verses:

e|-------------------------------------------------------------|
b|-------------------------------------------------------------|
g|--x7x7-7---x7x7-7---x7x7-7---x7x7-7--x7x7-7--x7x7-7-7--------|
d|--x7x7-7---x7x7-7---x7x7-7---x7x7-7--x7x7-7--x7x7-7-7--------|
a|--x5x5-5---x5x5-5---x5x5-5---x5x5-5--x5x5-5--x5x5-5-5--------|
e|-------------------------------------------------------------|

Chorus:

(These are only the powerchords.
 I am to weak to find out the correct strumming! SORRY! :)) 

e|-----------------------------|
b|-----------------------------|
g|----x7x7-7-------------------|
d|----x7x7-7----x7x7-7---------|
a|----x5x5-5----x7x7-7---------|
e|--------------x5x5-5---------|
Tap to rate this tab
# A B C D E F G H I J K L M N O P Q R S T U V W X Y Z