Guitaretab - guitar tabs
Song name
# A B C D E F G H I J K L M N O P Q R S T U V W X Y Z

Lagwagon - Heartbreaking Music tab

Heartbreaking Music
Lagwagon


Verse (Ive already come to terms.....)
e|-----------------------------------------------------------|
B|-----------------------------------------------------------|
G|---------------5-5-5-5-5-5--7-7-7-7-7-7-----------4-4-4-4--|
D|--2-2-2-2-2-2--5-5-5-5-5-5--7-7-7-7-7-7--5-5-5-5--4-4-4-4--| x2
A|--2-2-2-2-2-2--3-3-3-3-3-3--5-5-5-5-5-5--5-5-5-5--2-2-2-2--|
E|--0-0-0-0-0-0----------------------------3-3-3-3-----------|


Chorus (Click two, three.....)
e|---------------------------------------------------------------|      
B|-----------7-7-8-7--9-9-9--10--------------7-7-8-7--9-9-9--10--|         
G|--3~--5~---7-7-7-7--9-9-9--10-----3~---5~--7-7-7-7--9-9-9--10--|       
D|--3~--5~--------------------------3~---5~----------------------|   
A|--1~--3~--------------------------1~---3~----------------------|      
E|---------------------------------------------------------------|      

e|--------------------------------------------------------------------------|
B|----------8-7------------------7-7-8-7--9-9-9--10------------8-7----------|
G|--10-9-7--7-7---5-5-5--7-7-7---7-7-7-7--9-9-9--10----10-9-7--7-7---5-5-5--|
D|----------------5-5-5--7-7-7---------------------------------------5-5-5--|
A|----------------3-3-3--5-5-5---------------------------------------3-3-3--|
E|--------------------------------------------------------------------------|
Pm                . .    . .                                         . .    


Verse (How much honestys healthy?.....)
e|---------------------------------------------------------------|
B|---------------------------------------------------------------|
G|---------------5-5-5-5-5-5--7-7-7-7-7-7--10-10-10-10--9-9-9-9--|
D|--2-2-2-2-2-2--5-5-5-5-5-5--7-7-7-7-7-7---x--x--x--x--x-x-x-x--|
A|--2-2-2-2-2-2--3-3-3-3-3-3--5-5-5-5-5-5---8--8--8--8--7-7-7-7--|
E|--0-0-0-0-0-0--------------------------------------------------|

e|---------------------------------------------------------------------------|
B|---------------------------------------------------------------------------|
G|--7-7-7-7-7-7-7-7-7-7-7-7--5-5-5-5-5-5--10-10-10-10--9-9-9-9---------------|
D|--x-x-x-x-x-x-x-x-x-x-x-x--x-x-x-x-x-x---x--x--x--x--x-x-x-x---------------|
A|--5-5-5-5-5-5-5-5-5-5-5-5--3-3-3-3-3-3---8--8--8--8--7-7-7-7---->>>>>>>>>--|
E|---------------------------------------------------------------->>>>>>>>>--|


Chorus (Cos its always been.....)

[ Tab from: http://www.guitaretab.com/l/lagwagon/69115.html ]
Bridge
e|-----------------------------------------------------------------------------|
B|-----------------------------------------------------------------------------|
G|----------------------5-5-5-5------------------------------------------------|
D|--2-2--5--2-2-2-2--5--5-5-5-5--2-2--5--7-7-7-7---4-4-4--5-5-5--4-4-4--2-2-2--|x2       
A|--2-2--5--2-2-2-2--5--3-3-3-3--2-2--5--7-7-7-7---2-2-2--3-3-3--2-2-2--0-0-0--|
E|--0-0--3--0-0-2-0--3-----------0-0--3--5-5-5-5-------------------------------|

e|-----------------------------------------------------------------|
B|-----------------------------------------------------------------|
G|--10-10--9--10-10-10-10---10-10--9--7-7-7-7---10-10--9--7-7-7-7--|
D|---x-x--x---x--x--x--x----x--x--x--x-x-x-x----x--x--x--x-x-x-x--|
A|---8--8--7---8--8--8--8----8--8--7--5-5-5-5----8--8--7--5-5-5-5--|
E|-----------------------------------------------------------------|

e|--------------------------------------------------------------------------|
B|--------------------------------------------------------------------------|
G|--7-7--10-10--9-9--7-7----12-12-12-12--9-9-9-9--10-10-10-10--7-7-7-7------|
D|--x-x---x--x--x-x--x-x-----x--x--x--x--x-x-x-x---x--x--x--x--x-x-x-x--7/--|
A|--5-5---8--8--7-7--5-5----10-10-10-10--7-7-7-7---8--8--8--8--5-5-5-5--5/--|
E|--------------------------------------------------------------------------|
                            [         play these chords fast          ]


Verse (I am the jest malignant cell.....)


Chorus (But its always been.....)
e|---------------------------------------------------------------|      
B|-----------7-7-8-7--9-9-9--10--------------7-7-8-7--9-9-9--10--|         
G|--3~--5~---7-7-7-7--9-9-9--10-----3~---5~--7-7-7-7--9-9-9--10--|       
D|--3~--5~--------------------------3~---5~----------------------|   
A|--1~--3~--------------------------1~---3~----------------------|      
E|---------------------------------------------------------------|      

e|---------------------------------------------------------------------------------|
B|----------8-7------------------7-7-8-7--8-8-8-8----------------------------------|
G|--10-9-7--7-7---5-5-5--7-7-7---7-7-7-7--7-7-7-7----10-9-7--8-7~---5-5~-----------|
D|----------------5-5-5--7-7-7--------------------------------------5-5~--2~---7~--|
A|----------------3-3-3--5-5-5--------------------------------------3-3~--2~---7~--|
E|------------------------------------------------------------------------0~---5~--|
Pm                . .    . .                                        .




Pm... = palm mute
    x = mute string
    0 = open string
    h = hammer on
    p = pull off
    ~ = let ring
    / = slide down
    \ = slide up
    ^ = bend
    >>> = pickslide
Related for Heartbreaking Music tab