Song name
# A B C D E F G H I J K L M N O P Q R S T U V W X Y Z

Lagwagon - Change Despair tab

e|------------------------------------------------------|
B|-10-----11-----10-----11-----10-----11-----10-----11--|
G|-10-----10-----10-----10-----10-----10-----10-----10--|
D|-10-----10-----10-----10-----10-----10-----10-----10--|
A|--8------8------8------8------8------8------8------8--|
E|------------------------------------------------------|
 |                                                      |
e|------------------------------------------------------|
B|------------------------------------------------------|
G|------------------------------------------------------|
D|------------------------------3-------------3---------|
A|------------------------------3-------------3---------|
E|------------------------------1-------------1---------|
                                      __________________ ___________________
                                     |1.                |2.                 |
e|-----------------------------------|------------------|-------------------|
B|-----------------------------------|------------------|-------------------|
G|------------3-------------------3--|------------------|---------2---3--2--|
D|--3---2-3-2-3---------3---2-3-2-3--|--3p2p0-----------|---------2---3--2--|
A|--3---0-1-0-1---------3---0-1-0-1--|--------3h5--1/3--|--0h3h5--0---1--0--|
E|--1-------------------1------------|------------------|-------------------|
 |                                   |                  |                   |
e|-----------------------------------|------------------|-------------------|
B|-----------------------------------|------------------|-------------------|
G|------------3-------------------3--|------------------|-------------------|
D|--3---------3---------3---------3--|------------------|-------------------|
A|--3---------1---------3---------1--|------------------|-------------------|
E|--1-------------------1------------|------------------|-------------------|


e|----------------------------------------------------------------------------|
B|----------------------------------------------------------------------------|
G|--5-----------3----2--3--5----/15\-5/-10/-12--------------------------------|
D|--5-----------3----2--3--5--3---x--x---x---x--5-----------7--8----------10--|
A|--3-----------1----0--1--3--3-/13\-3/--8/-10--5-----------7--8----------10--|
E|----------------------------1-----------------3-----------5--6-----------8--|
 |                                                                            |
e|----------------------------------------------------------------------------|
B|----------------------------------------------------------------------------|
G|--------------3----2--3--5--------------------------------------------------|
D|--3-----------3----2--3--5--3-----------------5-----------7--8-----------5--|
A|--3-----------1----0--1--3--3-----------------5-----------7--8-----------5--|
E|--1-------------------------1-----------------3-----------5--6-----------3--|


e|--------------------------|
B|-10-----11-----10-----11--|
G|-10-----10-----10-----10--|
D|-10-----10-----10-----10--|
A|--8------8------8------8--|
E|--------------------------|
 |                          |
e|--------------------------|
B|--------------------------|
G|--------------------------|
D|--3-----------------------|
A|--3-----------------------|
E|--1-----------x\~~~~~~~~--|
                                      __________________ ___________________
                                     |1.                |2.                 |
e|-----------------------------------|------------------|-------------------|
B|-----------------------------------|------------------|-------------------|
G|------------3-------------------3--|------------------|---------2---3--2--|
D|--3---2-3-2-3---------3---2-3-2-3--|--3p2p0-----------|---------2---3--2--|
A|--3---0-1-0-1---------3---0-1-0-1--|--------3h5--1/3--|--0h3h5--0---1--0--|
E|--1-------------------1------------|------------------|-------------------|
 |                                   |                  |                   |
e|-----------------------------------|------------------|-------------------|
B|-----------------------------------|------------------|-------------------|
G|------------3-------------------3--|------------------|-------------------|
D|--3---------3---------3---------3--|------------------|-------------------|
A|--3---------1---------3---------1--|------------------|-------------------|
E|--1-------------------1------------|------------------|-------------------|


e|----------------------------------------------------------------------------|
B|----------------------------------------------------------------------------|
G|--5-----------3----2--3--5----/15\-5/-10/-12--------------------------------|
D|--5-----------3----2--3--5--3---x--x---x---x--5-----------7--8----------10--|
A|--3-----------1----0--1--3--3-/13\-3/--8/-10--5-----------7--8----------10--|
E|----------------------------1-----------------3-----------5--6-----------8--|
 |                                                                            |
e|----------------------------------------------------------------------------|
B|----------------------------------------------------------------------------|
G|--------------3----2--3--5--------------------------------------------------|
D|--3-----------3----2--3--5--3-----------------5-----------7--8-----------5--|
A|--3-----------1----0--1--3--3-----------------5-----------7--8-----------5--|
E|--1-------------------------1-----------------3-----------5--6-----------3--|


e|--------------------------------------------------12--13-12-10--12-13-------|
B|----------------------------------13-11-13--14-15--x---x--x--x---x-x--------|
G|----------6-7-9--10-9-7--9-10-12---x--x--x---x--x--9--10--9--7---9-10-------|
D|--7-8-10--x-x-x---x-x-x--x--x--x--10--8-10--11-12-----------------------10--|
A|--x-x--x--4-5-7---8-7-5--7--8-10----------------------------------------10--|
E|--5-6--8-----------------------------------------------------------------8--|
 |                                                                            |
e|----------------------------------------------------------------------------|
B|----------------------------------------------------------------------------|
G|------------------3------5----------------------------3----------5----------|
D|--3---------------3------5--------3-------------------3----------5-------2--|
A|--3-------4-------1------3--------3---------4---------1----------3-------2--|
E|--1-------5-----------------------1---------5----------------------------0--|


e|------------------------------------------------------------------------|
B|------------------------------------------------------------------------|
G|-10----10-9-----------10----10-9------------10----10-9------------------|
D|-10-----x-x---8---10--10-----x-x---8---10---10-----x-x---8----10--------|
A|--8-----8-7---8---10---8-----8-7---8---10----8-----8-7---8----10---x\~--|
E|--------------6----8---------------6----8----------------6-----8--------|
 |                                                                        |
e|------------------------------------------------------------------------|
B|------------------------------------------------------------------------|
G|----------------------10--------------------10--------------------------|
D|--3-----7-----8---10--10-----7-----8---10---10-----7-----8----10--------|
A|--3-----7-----8---10---8-----7-----8---10----8-----7-----8----10--------|
E|--1-----5-----6----8---------5-----6----8----------5-----6-----8--------|


e|--------------------------------------------|
B|--------------------------------------------|
G|-------------6----7--9--10\----9\---7\---5--|
D|--3----------x----x--x---x-----x----x----x--|
A|--3----------4----5--7---8\----7\---5\---3--|
E|--1-----------------------------------------|
 |                                            |
e|--------------------------------------------|
B|--------------------------------------------|
G|------------------------14\---12\--10\---9--|
D|--3----------7-----------x-----x----x----x--|
A|--3----------7----------12\---10\---8\---7--|
E|--1----------5------------------------------|


e|--------------------------------------------------------------|
B|-10-----11-----10-----11-----10-----11-----10-----11----10----|
G|-10-----10-----10-----10-----10-----10-----10-----10----10----|
D|-10-----10-----10-----10-----10-----10-----10-----10----10----|
A|--8------8------8------8------8------8------8------8-----8----|
E|--------------------------------------------------------------|
 |                                                              |
e|--------------------------------------------------------------|
B|--------------------------------------------------------------|
G|---------3-3-3-3-------3-3-3-3-------3-3-3-3-------3-3-3------|
D|--3------3-3-3-33------3-3-3-33------3-3-3-33------3-3-3------|
A|--3------1-1-1-13------1-1-1-13------1-1-1-13------1-1-1-333--|
E|--1-------------1-------------1-------------1------------111--|
Tap to rate this tab
# A B C D E F G H I J K L M N O P Q R S T U V W X Y Z