Song name
# A B C D E F G H I J K L M N O P Q R S T U V W X Y Z

Lagwagon - Island Of Shame tab

ISLAND OF SHAME by Lagwagon. Album : Trashed (1994)                     
Trashed is a hard one to tab for two guitars, because they are not separated
as stereo. You'll hear both guitars from both speakers, so it's hard to
realize which one is A and which is B guitar. So these are my own solutions.
Don't blame me - blame Fat Wreck...
This song hits you with rapidly changing rhythm and wonderful riffs.
Great song to start tabbing Lagwagon!
A=left guitar?   B=right guitar?   A&B=both
!FOR MORE ACCURATE LAGWAGON GUITAR TABS, VISIT www.jiihootabs.cjb.net!
# intro #A                                                          >
E------------------------------------------------------------------->
B------------------------------------------------------------------->
G--14---------------9---------------5---------------5---7-9---7-5--->
D------------------------------------------------------------------->
A--12---------------7---------------3---------------3---5-7---5-3--->
E------------------------------------------------------------------->
# intro #B                                                          >
E------------------------------------------------------------------->
B------------------------------------------------------------------->
G------------------------------------------------------------------->
D---7---------------5---------------3------------------------------->
A---7---------------5---------------3---------------3---5-7---5-3--->
E---5---------------3---------------1------------------------------->
>introA
>-------------------------------------------------------------------|
>-------------------------------------------------------------------|
>--14---------------9---------------5---------------9/101010/1212---|
>-------------------------------------------------------------------|
>--12---------------7---------------3---------------7//8-8-8/1010---|
>-------------------------------------------------------------------|
>introB
>-------------------------------------------------------------------|
>-------------------------------------------------------------------|
>-------------------------------------------------------------------|
>---7---------------5---------------3-------------------------------|
>---7---------------5---------------3---------------3//5-5-5//7-7---|
>---5---------------3---------------1-------------------------------|
:
# intro2 #A  *=play 6X palm-muted                                   >
E------------------------------------------------------------------->
B------------------------------------------------------------------->
G--14--------------12--------------12--------------14--1617--1614--->
D------*----------------*---------------*--------------------------->
A--1212------------10/12-----------10/12-----------12--1415--1412--->
E------------------------------------------------------------------->
# intro2 #B  *=play 7X with palm-muting                             >
E------------------------------------------------------------------->
B------------------------------------------------------------------->
G----*---------------*---------------*------------------------------>
D---7---------------5---------------3------------------------------->
A---7---------------5---------------3---------------3---5-7---5-3--->
E---5---------------3---------------1------------------------------->
>intro2A
>-------------------------------------------------------------------|
>-------------------------------------------------------------------|
>--12--------------12--------------12--------------14/161616/1717---|
>-------*---------------*---------------*---------------------------|
>--10/12-----------10/12-----------10/12-----------12/141414/1515---|
>-------------------------------------------------------------------|
>intro2B                                                           
>-------------------------------------------------------------------|
>-------------------------------------------------------------------|
>----*---------------*---------------*------------------------------|
>---7---------------5---------------3-------------------------------|
>---7---------------5---------------3---------------3//5-5-5//7-7---|
>---5---------------3---------------1-------------------------------|
:
# into-verse #A&B *=play 3X   #=play 6X palm-muted    m=palm-muted
E---------------------------------m-m-m--------------------|
B----*-----*-----*-----*-----*-----------*-----*--------#--|
G--10-----7-----9----10-----7----------10-----7-----9--9---|
D--10-----7-----9----10-----7--------7-10-----7-----9--9---|
A---8-----5-----7-----8-----5-----0-0-0-8-----5-----7--7---|
E----------------------------------------------------------|
:
# verse #A :=rhythm line  *=play 4X fast   %=pause          >  
E---:-------------:-------------:-------------:------------->
B----------------------------------------------------------->
G---------1716-141010--91010-10---------------7-7--7-7------>
D---7-7----------1010--91010-101010--91010-10-7-7--7-710--9->
A---7-7-101514-12-8-8--7-8-8--81010--91010-10-5-5--5-510--9->
E---5-5-------------------------8-8--7-8-8--8----------8--7->
# verse #B :=rhythm line  *=play 4X fast   %=pause          >  
E---:-------------:-------------:-------------:------------->
B----------------------------------------------------------->
G----------------1010--91010-10---------------7-7--7-7------>
D---7-7--5-7-7--71010--91010-101010--91010-10-7-7--7-710--9->
A---7-7--5-7-7--7-8-8--7-8-8--81010--91010-10-5-5--5-510--9->
E---5-5--3-5-5--5---------------8-8--7-8-8--8----------8--7->
>verseA                                                     >
>---:-------------:-------------:-------------:----%%%------>
>----------------------------------------------*---%%%------>
>---9-9--7-9-9--91010--91010-10---------------7----%%%------>
>----------------1010--91010-101010--91010-10-7----%%%------>
>---7-7--5-7-7--7-8-8--7-8-8--81010--91010-10-5----%%%3-2--->
>-------------------------------8-8--7-8-8--8------%%%----3->
>verseB                                                     >
>---:-------------:-------------:-------------:----%%%------>
>----------------------------------------------*---%%%------>
>----------------1010--91010-10---------------7----%%%------>
>---7-7--5-7-7--71010--91010-101010--91010-10-7----%%%------>
>---7-7--5-7-7--7-8-8--7-8-8--81010--91010-10-5----%%%3-2--->
>---5-5--3-5-5--5---------------8-8--7-8-8--8------%%%----3->
>verseA                                                     >
>---:-------------:-------------:-------------:------------->
>----------------------------------------------------------->
>----------------1010--91010-10---------------7-7--7-7------>
>---7-7--5-7-7--71010--91010-101010--91010-10-7-7--7-710--9->
>---7-7--5-7-7--7-8-8--7-8-8--81010--91010-10-5-5--5-510--9->
>---5-5--3-5-5--5---------------8-8--7-8-8--8----------8--7->
>verseB                                                     >
>---:-------------:-------------:-------------:------------->
>----------------------------------------------------------->
>----------------1010--91010-10---------------7-7--7-7------>
>---7-7--5-7-7--71010--91010-101010--91010-10-7-7--7-710--9->
>---7-7--5-7-7--7-8-8--7-8-8--81010--91010-10-5-5--5-510--9->
>---5-5--3-5-5--5---------------8-8--7-8-8--8----------8--7->
>verseA
>---%%------------:-------------:-------------:--------------%%|
>---%%-------------------------------------------------------%%|
>---%%9--7-9-9--91010--91010-10---------------7-7--7-7-10-12-%%|
>---%%-----------1010--91010-101010--91010-10-7-7--7---------%%|
>---%%7--5-7-7--7-8-8--7-8-8--81010--91010-10-5-5--5-5--8-10-%%|
>---%%--------------------------8-8--7-8-8--8----------------%%|
>verseB
>---%%------------:-------------:-------------:--------------%%|
>---%%-------------------------------------------------------%%|
>---%%-----------1010--91010-10---------------7-7--7-7-10-12-%%|
>---%%7--5-7-7--71010--91010-101010--91010-10-7-7--7---------%%|
>---%%7--5-7-7--7-8-8--7-8-8--81010--91010-10-5-5--5-5--8-10-%%|
>---%%5--3-5-5--5---------------8-8--7-8-8--8----------------%%|
!FOR MORE ACCURATE LAGWAGON GUITAR TABS, VISIT www.jiihootabs.cjb.net!
# chorus #A    %=pause     *=play 4X                                    >
E---------------%%%-------------%%%-------------%%%-------------%%%----->
B---------------%%%-------------%%%-------------%%%-------------%%%----->
G--10--10--10---%%%17--16141617-%%%-------------%%%---------5-7-%%%--*-->
D--10--10101010-%%%-------------%%%-7---7-5-7-9-%%%-7---7-5-5-7-%%%-3--->
A---8---810-810-%%%15--14121415-%%%-7---7-5-7-9-%%%-7---7-5-3-5-%%%-3--->
E---8---8-8-8-8-%%%-------------%%%-5---5-3-5-7-%%%-5---5-3-----%%%-1--->
# chorus #B    %=pause     *=play 4X                                    >
E---------------%%%-------------%%%-------------%%%-------------%%%----->
B---------------%%%-------------%%%-------------%%%-------------%%%----->
G--10--10--10---%%%14--12101214-%%%-------------%%%---------5-7-%%%--*-->
D--10--10101010-%%%-------------%%%-7---7-5-7-9-%%%-7---7-5-5-7-%%%-3--->
A---8---810-810-%%%12--10-81012-%%%-7---7-5-7-9-%%%-7---7-5-3-5-%%%-3--->
E---8---8-8-8-8-%%%-------------%%%-5---5-3-5-7-%%%-5---5-3-----%%%-1--->
>chorusA
>-----------------------------------|
>-----------------------------------|
>---2-0-----0-----------------------|
>---------2---2-0---2-0-----0-------|
>-----------------3-----3-2----3--2-|
>-----------------------------------|
>chorusB
>-----------------------------------|
>-----------------------------------|
>---2-0-----0-----------------------|
>---------2---2-0---2-0-----0-------|
>-----------------3-----3-2----3--2-|
>-----------------------------------|
:
# solo #A  b=bend-up one step   p=pull-off  h=hammer-on     >
E-%%%------------------------------------------------------->
B-%%%------------------------------------------------------->
G-%%%--------5----5-5--5-7b-7-5----------5----5----5-4------>
D-%%%-7--75h7---7---------------7-7--75h7---7---7------7--5->
A-%%%------------------------------------------------------->
E-%%%------------------------------------------------------->
# solo-bg #B                                                >
E-%%%------------------------------------------------------->
B-%%%------------------------------------------------------->
G-%%%-2--2--------5-5--5-7--5-4-2-2--2--------5-5--5-4-4--4->
D-%%%-2--2--------5-5--5-7--5-4-2-2--2--------5-5--5-4-4--4->
A-%%%-0--0-023--0-3-3--3-5--3-2-0-0--0-023--0-3-3--3-2-2--2->
E-%%%------------------------------------------------------->
>soloA
>----------------------------------------------------------|
>---------------------------------------------8-5--8p5-8b--|
>------------5----5-5--5-7b-7-5----------5-----------------|
>---7-7--75h7---7---------------7-7--75h7---7--------------|
>----------------------------------------------------------|
>----------------------------------------------------------|
>solo-bgB
>----------------------------------------------------------|
>----------------------------------------------------------|
>---2-2--2--------5-5--5-7--5-4-2-2--2---------------------|
>---2-2--2--------5-5--5-7--5-4-2-2--2--------5-2--5-7-----|
>---0-0--0-023--0-3-3--3-5--3-2-0-0--0-023--0-5-2--5-7-----|
>---------------------------------------------3-0--3-5-----|
:
# verse2 #A :=rhythm line                  %=pause          >
E---:-------------:-------------:-------------:------------->
B----------------------------------------------------------->
G----------------1010--91010-10---------------7-7--7-7------>
D---7-7--5-7-7--71010--91010-101010--91010-10-7-7--7-710--9->
A---7-7--5-7-7--7-8-8--7-8-8--81010--91010-10-5-5--5-510--9->
E---5-5--3-5-5--5---------------8-8--7-8-8--8----------8--7->
# verse2 #B :=rhythm line                  %=pause          >  
E---:-------------:-------------:-------------:------------->
B----------------------------------------------------------->
G----------------1010--91010-10---------------7-7--7-7------>
D---7-7--5-7-7--71010--91010-101010--91010-10-7-7--7-710--9->
A---7-7--5-7-7--7-8-8--7-8-8--81010--91010-10-5-5--5-510--9->
E---5-5--3-5-5--5---------------8-8--7-8-8--8----------8--7->
:
>verse2A                                                    >
>---:-------------:-------------:-------------:--------%%%%->
>------------------------------------------------------%%%%->
>---9-9--7-9-9--91010--91010-10---------------7-7--7-7-%%%%->
>----------------1010--91010-101010--91010-10-7-7--7-7-%%%%->
>---7-7--5-7-7--7-8-8--7-8-8--81010--91010-10-5-5--5-5-%%%%->
>-------------------------------8-8--7-8-8--8----------%%%%->
>verse2B                                                    >
>---:-------------:-------------:-------------:--------%%%%->
>------------------------------------------------------%%%%->
>----------------1010--91010-10---------------7-7--7-7-%%%%->
>---7-7--5-7-7--71010--91010-101010--91010-10-7-7--7-7-%%%%->
>---7-7--5-7-7--7-8-8--7-8-8--81010--91010-10-5-5--5-5-%%%%->
>---5-5--3-5-5--5---------------8-8--7-8-8--8----------%%%%->
>verse2A                                                    >
>---:-------------:-------------:-------------:------------->
>----------------------------------------------------------->
>----------------1010--91010-10---------------7-7--7-7------>
>---7-7--5-7-7--71010--91010-101010--91010-10-7-7--7-710--9->
>---7-7--5-7-7--7-8-8--7-8-8--81010--91010-10-5-5--5-510--9->
>---5-5--3-5-5--5---------------8-8--7-8-8--8----------8--7->
>verse2B                                                    >
>---:-------------:-------------:-------------:------------->
>----------------------------------------------------------->
>----------------1010--91010-10---------------7-7--7-7------>
>---7-7--5-7-7--71010--91010-101010--91010-10-7-7--7-710--9->
>---7-7--5-7-7--7-8-8--7-8-8--81010--91010-10-5-5--5-510--9->
>---5-5--3-5-5--5---------------8-8--7-8-8--8----------8--7->
>verse2A
>-----------------:-------------:-------------:--------------%%|
>------------------------------------------------------------%%|
>---9-9--7-9-9--91010--91010-10---------------7-7--7-7-10-12-%%|
>----------------1010--91010-101010--91010-10-7-7--7---------%%|
>---7-7--5-7-7--7-8-8--7-8-8--81010--91010-10-5-5--5-5--8-10-%%|
>-------------------------------8-8--7-8-8--8----------------%%|
>verse2B
>-----------------:-------------:-------------:--------------%%|
>------------------------------------------------------------%%|
>----------------1010--91010-10---------------7-7--7-7-10-12-%%|
>---7-7--5-7-7--71010--91010-101010--91010-10-7-7--7---------%%|
>---7-7--5-7-7--7-8-8--7-8-8--81010--91010-10-5-5--5-5--8-10-%%|
>---5-5--3-5-5--5---------------8-8--7-8-8--8----------------%%|
:
Then play A&BchorusA&B.
:
# bridge #A&B                                                     >
E----------------------------------------------------------------->
B----------------------------------------------------------------->
G----------------------------------------------------------------->
D---7---------------5---------------3---------------5------------->
A---7---------------5---------------3---------------5------------->
E---5---------------3---------------1---------------3------------->
>bridgeA&B
>-------------------------------------------------------------------|
>-------------------------------------------------------------------|
>---------------------------------------------------5//7-7-7//9-9---|
>---7---------------5---------------3-------------------------------|
>---7---------------5---------------3---------------3//5-5-5//7-7---|
>---5---------------3---------------1-------------------------------|
:
# bridge2 #A&B (Open your eyes...)  %=pause  *=play 4X
E---%%------%%------%%------%%------%%------%%------%%-------%%%|
B---%%------%%------%%------%%------%%------%%------%%-------%%%|
G---%%-*----%%-*----%%-*----%%-*----%%-*----%%-*----%%-*-----%%%|
D---%%7-----%%5-----%%3-----%%5-----%%7-----%%5-----%%3-----2%%%|
A---%%7-----%%5-----%%3-----%%5-----%%7-----%%5-----%%3-----2%%%|
E---%%5-----%%3-----%%1-----%%3-----%%5-----%%3-----%%1-----0%%%|
:
# bridge3 #A (He was alone...) *=play 6X %=pause 
E--------------------------------------------------------------------|
B------------------------------------*-------*-------*---------------|
G----*-------*-------*-------*-----14-------9------10-------9----999-|
D---7-------7-------7-------7------------------------------------999-|
A---7-------7-------7-------7------12-------7-------8-------7%%%%777-|
E---5-------5-------5-------5----------------------------------------|
# bridge3 #B (He was alone...) *=play 6X %=pause 
E--------------------------------------------------------------------|
B------------*-------*-------*---------------*-------*---------------|
G----*------5-------7-------9--------*------5-------7-------9----999-|
D---7-------5-------7-------9-------7-------5-------7-------9----999-|
A---7-------3-------5-------7-------7-------3-------5-------7%%%%777-|
E---5-------------------------------5--------------------------------|
:                                                   m=palm-muted
# outro #A&B X2 (!2nd time without #!)  *=play 3X   #=play 4X palm-muted                              
E---------------------------------m-m-m-----------------------------------|
B----*-----*-----*-----*-----*-----------*-----*-----*-----*-----*--------|
G--10-----7-----9----10-----7----------10-----7-----9----10-----7------#--|
D--10-----7-----9----10-----7--------7-10-----7-----9----10-----7-----7---|
A---8-----5-----7-----8-----5-----0-0-0-8-----5-----7-----8-----5-----7---|
E---------------------------------------------------------------------5---|
!FOR MORE ACCURATE LAGWAGON GUITAR TABS, VISIT www.jiihootabs.cjb.net!
Don't leave this on...the island of shame!
Tabbed by Jussi Heinonen 10.10.01           Thanks to Thilo.
Tap to rate this tab
 
# A B C D E F G H I J K L M N O P Q R S T U V W X Y Z