Song name
# A B C D E F G H I J K L M N O P Q R S T U V W X Y Z

Lagwagon - Jimmy Johnson tab

Help us improve GuitareTab! Take a short survey!
intro
e|---------------------------------------------------------------------------|
B|---------------------------------------------------------------------------|
G|-4-------------------4-----------------------------------------------------|
D|-4------7-----5------4----5----7-------------------------------------------|
A|-2------7-----5------2----5----7-------------------------------------------|
E|--------5-----3-----------3----5-/-----------------------------------------|

riff 1
e|-------------------------------------------------------------------------|
B|-------------------------------------------------------------------------|
G|-4--------7---------4---------7-----------------7------------------------|
D|-4---5----7----7----4----5----7---7----5----7---7---4----5---4-----------|
A|-2---5----5----7----2----5----5---7----5----7---5---4----5---4-----------|
E|-----3---------5---------3--------5----3----5-------2----3---2-----------|

riff 2
e|-------------------------------------------------------------------------|
B|-------------------------------------------------------------------------|
G|-4-----------------------------------------------------------------------|
D|-4---5---5---5----7------------------------------------------------------|
A|-2---5---5---5----7------------------------------------------------------|
E|-----3---3---3----5p/----------------------------------------------------|

riff 3
e|---------------------------------------------------------------------------|
B|---------------------------------------------------------------------------|
G|-4--------7--------4---------7---------------------------------------------|
D|-4---5----7---7----4----5----7---8-----------------------------------------|
A|-2---5----5---7----2----5----5---8-----------------------------------------|
E|-----3--------5---------3--------6-----------------------------------------|

solo 2x
e|-------------------------------------------------------------------------|
B|-------------------------------------------------------------------------|
G|---4--9^--2--9^--1--9^--7--6---------------------------------------------|
D|-------------------------------------------------------------------------|
A|-------------------------------------------------------------------------|
E|-------------------------------------------------------------------------|

rhythm solo
e|-------------------------------------------------------------------------|
B|-------------------------------------------------------------------------|
G|--4>-------------------4>--------------------------*---------------------|
D|--4>----7>---2>---5>---4>---7>---2>---5>--4>--4>---4---------------------|
A|--2>----7>---2>---5>---2>---7>---2>---5>--4>--4>---4---------------------|
E|--------5>---0>---3>--------5>---0>---3>--2>--2>---2---------------------|

riff 3
e|-------------------------------------------------------------------------|
B|-------------------------------------------------------------------------|
G|-4-------7---------4---------7-------------------7-----------------------|
D|-4---5---7----7----4----5----7----7----5----7----7----4------------------|
A|-2---5---5----7----2----5----5----7----5----7----5----4------------------|
E|-----3--------5---------3---------5----3----5---------2/-----------------|

riff 4
e|-------------------------------------------------------------------------|
B|-------------------------------------------------------------------------|
G|-*----*----7-------------------------------------------------------------|
D|-5----7----7-------------------------------------------------------------|
A|-5----7----5-------------------------------------------------------------|
E|-3----5------------------------------------------------------------------|
Related for Jimmy Johnson tab