Song name
# A B C D E F G H I J K L M N O P Q R S T U V W X Y Z

Lagwagon - Kids Dont Like To Share tab

e-|-----------------------------------------------------------------|
B-|-----------------------------------------------------------------|
G-|-----------------------------------------------------------------|
D-|-----------------4-4-4-4-4-4-4-4-6-7-7-7-7-7-7-7-----------------|
A-|-4-4-4-4-4-4-4-4-2-2-2-2-2-2-2-2-4-5-5-5-5-5-5-5-7-7-7-7-7-7-7-7-|
E-|-2-2-2-2-2-2-2-2---------------------------------5-5-5-5-5-5-5-5-|

e-|----------------------------------------------------------|
B-|----------------------------------------------------------|
G-|----------------------------------------------------------|
D-|-----------------4-4-4-4-4-4-4-4-6-7-7-7-7-7-7-7-12-14-16-|
A-|-4-4-4-4-4-4-4-4-2-2-2-2-2-2-2-2-4-5-5-5-5-5-5-5-10-12-14-|
E-|-2-2-2-2-2-2-2-2------------------------------------------|

e-|-----------------------------------------------------------------|
B-|-----------------------------------------------------------------|
G-|-----------------------------------------------------------------|
D-|---------------------------------4-4-4-4-4-4-4-4-6-7-7-7-9-9-9-9-|
A-|-7-7-7-7-7-7-7-7-4-4-4-4-4-4-4-4-2-2-2-2-2-2-2-2-4-5-5-5-7-7-7-7-|
E-|-5-5-5-5-5-5-5-5-2-2-2-2-2-2-2-2---------------------------------|

e-|-----------------------------------------------------------------|
B-|-----------------------------------------------------------------|
G-|-----------------------------------------------------------------|
D-|-----6-6---------7-7-7-7-4-4-4-4-----6-6---------7-7-7-7---------|
A-|-7-7-4-4-4-4-7-7-5-5-5-5-2-2-2-2-7-7-4-4-4-4-7-7-5-5-5-5-2-2-2-2-|
E-|-5-5-----2-2-5-5-----------------5-5-----2-2-5-5---------0-0-0-0-|

e-|-----------------------------------------------------------------|
B-|-----------------------------------------------------------------|
G-|-----------------------------------------------------------------|
D-|-----6-6---------7-7-7-7-4-4-4-4-----6-6---------7-7-7-7-9-9-9-9-|
A-|-7-7-4-4-4-4-7-7-5-5-5-5-2-2-2-2-7-7-4-4-6-6-7-7-5-5-5-5-7-7-7-7-|
E-|-5-5-----2-2-5-5-----------------5-5-----4-4-5-5-----------------|

e-|-----------------------------------------------------------------|
B-|-----------------------------------------------------------------|
G-|-----------------------------------------------------------------|
D-|---------------------------------------------4-4-4-4-4-4-4-4-6-7-|
A-|-7-x-7-x-7-x-7-7-7-7-7-7-7-7-4-4-4-4-4-4-4-4-2-2-2-2-2-2-2-2-4-5-|
E-|-5-x-5-x-5-x-5-5-5-5-5-5-5-5-2-2-2-2-2-2-2-2---------------------|

e-|---------------------------------------------------------------------|
B-|---------------------------------------------------------------------|
G-|---------------------------------------------------------------------|
D-|---------4-4-7-7-7-6-7-6-7-4-----------------------------------------|
A-|-7-7-4-4-2-2-5-5-------------4-5-4-2-5-5-4-2-7-7-x-7-x-7-x-7-x-7-x-7-|
E-|-5-5-2-2---------------------------------------5-x-5-x-5-x-5-x-5-x-5-|

e-|----------------------------------------------------------|
B-|----------------------------------------------------------|
G-|----------------------------------------------------------|
D-|----------7-----4-------------------------------7-----4-9-|
A-|-x-4-x-2--5-7-4-2-7-x-7-x-7-x-7-x-7-x-7-x-4-x-2-5-7-4-2-7-|
E-|-x-2-x-0----5-2---5-x-5-x-5-x-5-x-5-x-5-x-2-x-0---5-2-----|

e-|-----------------------------------------------------------------|
B-|-----------------------------------------------------------------|
G-|-----------------------------------------------------------------|
D-|-----6-6---------7-7-7-7-4-4-4-4-----6-6---------7-7-7-7---------|
A-|-7-7-4-4-4-4-7-7-5-5-5-5-2-2-2-2-7-7-4-4-4-4-7-7-5-5-5-5-2-2-2-2-|
E-|-5-5-----2-2-5-5-----------------5-5-----2-2-5-5---------0-0-0-0-|

e-|-----------------------------------------------------------------|
B-|-----------------------------------------------------------------|
G-|-----------------------------------------------------------------|
D-|-----6-6---------7-7-7-7-4-4-4-4-----6-6---------7-7-7-7-9-9-9-9-|
A-|-7-7-4-4-4-4-7-7-5-5-5-5-2-2-2-2-7-7-4-4-6-6-7-7-5-5-5-5-7-7-7-7-|
E-|-5-5-----2-2-5-5-----------------5-5-----4-4-5-5-----------------|

e-|---------------------------------------------------------------|
B-|---------------------------------------------------------------|
G-|---------------------------------------------------------------|
D-|-----------------------------7---------------------------------|
A-|-7-x-7-x-7-x-7-x-7-x-7-x-7-x---7-7-7-7-7-7-7-7-4-4-4-4-4-4-4-4-|
E-|-5-x-5-x-5-x-5-x-5-x-5-x-5-x---5-5-5-5-5-5-5-5-2-2-2-2-2-2-2-2-|

e-|---------------------|
B-|---------------------|
G-|---------------------|
D-|-4-4-4-4-4-4-4-4-6-7-|
A-|-2-2-2-2-2-2-2-2-4-5-|
E-|---------------------|
Tap to rate this tab
# A B C D E F G H I J K L M N O P Q R S T U V W X Y Z