Guitaretab - guitar tabs
Song name
# A B C D E F G H I J K L M N O P Q R S T U V W X Y Z

Lagwagon - Move The Car tab

e-|-----------------------------------------------------------------|
B-|-----------------------------------------------------------------|
G-|-----------------------------------------------------------------|
D-|-x-x-x-2-x-x-x-2-x-x-x-2-x-x-x-2-x-x-x-2-x-x-x-2-x-x-x-2-x-x-x-2-|
A-|-x-x-2-2-x-x-2-2-x-x-2-2-x-x-2-2-x-x-2-2-x-x-2-2-x-x-2-2-x-x-2-2-|
E-|-x-0-0-0-x-0-0-0-x-0-0-0-x-0-0-0-x-0-0-0-x-0-0-0-x-0-0-0-x-0-0-0-|

e-|-----------------------------------------------------------------|
B-|-----------------------------------------------------------------|
G-|-----------------------------------------------------------------|
D-|-6--6--6--6--6--6--6--6--6--6--6--6--6--6--6--6--x-x-x-2-x-x-x-2-|
A-|-4--4--4--4--4--4--4--4--4--4--4--4--4--4--4--4--x-x-2-2-x-x-2-2-|
E-|-------------------------------------------------x-0-0-0-x-0-0-0-|

e-|-----------------------------------------------------------------|
B-|-----------------------------------------------------------------|
G-|-----------------------------------------------------------------|
D-|-x-x-x-2-x-x-x-2-x-x-x-2-x-x-x-2-x-x-x-2-x-x-x-2-x-x-x-2-x-x-x-2-|
A-|-x-x-2-2-x-x-2-2-x-x-2-2-x-x-2-2-x-x-2-2-x-x-2-2-x-x-2-2-x-x-2-2-|
E-|-x-0-0-0-x-0-0-0-x-0-0-0-x-0-0-0-x-0-0-0-x-0-0-0-x-0-0-0-x-0-0-0-|

e-|------------------------------------------|
B-|------------------------------------------|
G-|------------------------------------------|
D-|-6-6-6-6-6-6-6-6-6-6-6-6-6-6-6-6----------|
A-|-4-4-4-4-4-4-4-4-4-4-4-4-4-4-4-4--4--7--9-|
E-|----------------------------------2--5--7-|

e-|-----------------------------------------------------------------|
B-|-----------------------------------------------------------------|
G-|-----------------------------------------------------------------|
D-|-9-9-9-9-9-9-9-9-------------------------------------------------|
A-|-7-7-7-7-7-7-7-7-9-9-9-9-9-9-9-9-7-7-7-7-7-7-7-7-9-9-9-9-9-9-9-9-|
E-|-----------------7-7-7-7-7-7-7-7-5-5-5-5-5-5-5-5-7-7-7-7-7-7-7-7-|

e-|-----------------------------------------------------------------|
B-|-----------------------------------------------------------------|
G-|-----------------------------------------------------------------|
D-|-9-9-9-9-9-9-9-9-------------------------------------------------|
A-|-7-7-7-7-7-7-7-7-9-9-9-9-9-9-9-9-7-7-7-7-7-7-7-7-9-9-9-9-9-9-9-9-|
E-|-----------------7-7-7-7-7-7-7-7-5-5-5-5-5-5-5-5-7-7-7-7-7-7-7-7-|

e-|-------------------------|
B-|-------------------------|
G-|-------------------------|
D-|-9-9-9-9-8-6-6-6---------|
A-|-7-7-7-7-6-4-4-4-7-4-7-9-|
E-|-----------------5-2-5-7-|

e-|-----------------------------------------------------------------|
B-|-----------------------------------------------------------------|
G-|-----------------------------------------------------------------|
D-|-x-x-x-2-x-x-x-2-x-x-x-2-x-x-x-2-x-x-x-2-x-x-x-2-x-x-x-2-x-x-x-2-|
A-|-x-x-2-2-x-x-2-2-x-x-2-2-x-x-2-2-x-x-2-2-x-x-2-2-x-x-2-2-x-x-2-2-|
E-|-x-0-0-0-x-0-0-0-x-0-0-0-x-0-0-0-x-0-0-0-x-0-0-0-x-0-0-0-x-0-0-0-|

e-|-----------------------------------------------------------------|
B-|-----------------------------------------------------------------|
G-|-----------------------------------------------------------------|
D-|-6--6--6--6--6--6--6--6--6--6--6--6--6--6--6--6--x-x-x-2-x-x-x-2-|
A-|-4--4--4--4--4--4--4--4--4--4--4--4--4--4--4--4--x-x-2-2-x-x-2-2-|
E-|-------------------------------------------------x-0-0-0-x-0-0-0-|

e-|-----------------------------------------------------------------|
B-|-----------------------------------------------------------------|
G-|-----------------------------------------------------------------|
D-|-x-x-x-2-x-x-x-2-x-x-x-2-x-x-x-2-x-x-x-2-x-x-x-2-x-x-x-2-x-x-x-2-|
A-|-x-x-2-2-x-x-2-2-x-x-2-2-x-x-2-2-x-x-2-2-x-x-2-2-x-x-2-2-x-x-2-2-|
E-|-x-0-0-0-x-0-0-0-x-0-0-0-x-0-0-0-x-0-0-0-x-0-0-0-x-0-0-0-x-0-0-0-|

e-|------------------------------------------|
B-|------------------------------------------|
G-|------------------------------------------|
D-|-6-6-6-6-6-6-6-6-6-6-6-6-6-6-6-6----------|
A-|-4-4-4-4-4-4-4-4-4-4-4-4-4-4-4-4--4--7--9-|
E-|----------------------------------2--5--7-|

e-|-----------------------------------------------------------------|
B-|-----------------------------------------------------------------|
G-|-----------------------------------------------------------------|
D-|-9-9-9-9-9-9-9-9-------------------------------------------------|
A-|-7-7-7-7-7-7-7-7-9-9-9-9-9-9-9-9-7-7-7-7-7-7-7-7-9-9-9-9-9-9-9-9-|
E-|-----------------7-7-7-7-7-7-7-7-5-5-5-5-5-5-5-5-7-7-7-7-7-7-7-7-|
[ Tab from: http://www.guitaretab.com/l/lagwagon/72858.html ]
e-|-----------------------------------------------------------------|
B-|-----------------------------------------------------------------|
G-|-----------------------------------------------------------------|
D-|-9-9-9-9-9-9-9-9-------------------------------------------------|
A-|-7-7-7-7-7-7-7-7-9-9-9-9-9-9-9-9-7-7-7-7-7-7-7-7-9-9-9-9-9-9-9-9-|
E-|-----------------7-7-7-7-7-7-7-7-5-5-5-5-5-5-5-5-7-7-7-7-7-7-7-7-|

e-|-------------------------|
B-|-------------------------|
G-|-------------------------|
D-|-9-9-9-9-8-6-6-6---------|
A-|-7-7-7-7-6-4-4-4-7-4-7-9-|
E-|-----------------5-2-5-7-|

e-|-----------------------------------------------------------------|
B-|-----------------------------------------------------------------|
G-|-----------------------------------------------------------------|
D-|-6-6-6-6-6-6-6-6-------------------------------------------------|
A-|-4-4-4-4-4-4-4-4-6-6-6-6-6-6-6-6-7-7-7-7-7-7-7-7-9-9-9-9-9-9-9-9-|
E-|-----------------4-4-4-4-4-4-4-4-5-5-5-5-5-5-5-5-7-7-7-7-7-7-7-7-|

e-|-----------------------------------------------------------------|
B-|-----------------------------------------------------------------|
G-|-----------------------------------------------------------------|
D-|-6-6-6-6-6-6-6-6-------------------------------------------------|
A-|-4-4-4-4-4-4-4-4-6-6-6-6-6-6-6-6-7-7-7-7-7-7-7-7-9-9-9-9-9-9-9-9-|
E-|-----------------4-4-4-4-4-4-4-4-5-5-5-5-5-5-5-5-7-7-7-7-7-7-7-7-|

e-|-----------------------------------------------------------------|
B-|-----------------------------------------------------------------|
G-|-----------------------------------------------------------------|
D-|-6-6-6-6-6-6-6-6-------------------------------------------------|
A-|-4-4-4-4-4-4-4-4-6-6-6-6-6-6-6-6-7-7-7-7-7-7-7-7-9-9-9-9-9-9-9-9-|
E-|-----------------4-4-4-4-4-4-4-4-5-5-5-5-5-5-5-5-7-7-7-7-7-7-7-7-|

e-|-------------------------------------------------------------------------|
B-|-------------------------------------------------------------------------|
G-|-------------------------------------------------------------------------|
D-|-9-9-9-9-8-8-8-8-6-6-6-6-14-14-14-14-9-9-9-9-8-8-8-8-6-6-6-6-14-14-14-14-|
A-|-7-7-7-7-6-6-6-6-4-4-4-4-12-12-12-12-7-7-7-7-6-6-6-6-4-4-4-4-12-12-12-12-|
E-|-------------------------------------------------------------------------|

e-|-------------------------------------|
B-|-------------------------------------|
G-|-------------------------------------|
D-|-9-9-9-9-8-8-8-8-6-6-6-6-14-14-14-14-|
A-|-7-7-7-7-6-6-6-6-4-4-4-4-12-12-12-12-|
E-|-------------------------------------|

e-|-----------------------------------------------------------------|
B-|-----------------------------------------------------------------|
G-|-----------------------------------------------------------------|
D-|-x-x-x-2-x-x-x-2-x-x-x-2-x-x-x-2-x-x-x-2-x-x-x-2-x-x-x-2-x-x-x-2-|
A-|-x-x-2-2-x-x-2-2-x-x-2-2-x-x-2-2-x-x-2-2-x-x-2-2-x-x-2-2-x-x-2-2-|
E-|-x-0-0-0-x-0-0-0-x-0-0-0-x-0-0-0-x-0-0-0-x-0-0-0-x-0-0-0-x-0-0-0-|

e-|------------------------------------------|
B-|------------------------------------------|
G-|------------------------------------------|
D-|-6-6-6-6-6-6-6-6-6-6-6-6-6-6-6-6----------|
A-|-4-4-4-4-4-4-4-4-4-4-4-4-4-4-4-4--4--7--9-|
E-|----------------------------------2--5--7-|

e-|-----------------------------------------------------------------|
B-|-----------------------------------------------------------------|
G-|-----------------------------------------------------------------|
D-|-9-9-9-9-9-9-9-9-------------------------------------------------|
A-|-7-7-7-7-7-7-7-7-9-9-9-9-9-9-9-9-7-7-7-7-7-7-7-7-9-9-9-9-9-9-9-9-|
E-|-----------------7-7-7-7-7-7-7-7-5-5-5-5-5-5-5-5-7-7-7-7-7-7-7-7-|

e-|-----------------------------------------------------------------|
B-|-----------------------------------------------------------------|
G-|-----------------------------------------------------------------|
D-|-9-9-9-9-9-9-9-9-------------------------------------------------|
A-|-7-7-7-7-7-7-7-7-9-9-9-9-9-9-9-9-7-7-7-7-7-7-7-7-9-9-9-9-9-9-9-9-|
E-|-----------------7-7-7-7-7-7-7-7-5-5-5-5-5-5-5-5-7-7-7-7-7-7-7-7-|

e-|-------------------------------------------------------------------------|
B-|-------------------------------------------------------------------------|
G-|-------------------------------------------------------------------------|
D-|-9-9-9-9-8-6-6-6---------9-9-9-9-8-6-6-6---------9-9-9-9-8-6-6-6---------|
A-|-7-7-7-7-6-4-4-4-7-4-7-9-7-7-7-7-6-4-4-4-7-4-7-9-7-7-7-7-6-4-4-4-7-4-7-9-|
E-|-----------------5-2-5-7-----------------5-2-5-7-----------------5-2-5-7-|
Related for Move The Car tab
Advertisement will be closed in 10 seconds