Song name
# A B C D E F G H I J K L M N O P Q R S T U V W X Y Z

Lagwagon - Name Droping tab

e-|-------------------------------------------|--------------------------|
B-|-------------------------------------------|--------------------------|
G-|-------------------------------------------|--------------------------|
D-|---4-4-4-4---4-4-4-4---4-4-4-4---4-4-4-4---|--4-4-4-4-4-4-4-4-3-3-3-3-|
A-|-4-2-2-2-2-4-2-2-2-2-4-2-2-2-2-4-2-2-2-2-4-|--2-2-2-2-2-2-2-2-1-1-1-1-|
E-|-2---------2---------2---------2---------2-|--------------------------|

e-|-----------------------------------------------------------------|
B-|-----------------------------------------------------------------|
G-|-----------------------------------------------------------------|
D-|-3-3-3-3---------------------------------11-11-12-13-11-11-12-13-|
A-|-1-1-1-1-6-6-6-6-6-6-6-6-4-4-4-4-4-4-4-4-------------------------|
E-|---------4-4-4-4-4-4-4-4-2-2-2-2-2-2-2-2-------------------------|

e-|--------------------------|-----------------------------------------------|
B-|--------------------------|-----------------------------------------------|
G-|--------------------------|-----------------------------------------------|
D-|-11-11-12-13-11-13-11-9-8-|-4-4-4-8-9-9-9-9-4-4-4-8-9-9-9-9-4-4-4-8-9-9-9-|
A-|--------------------------|-2-2-2-6-7-7-7-7-2-2-2-6-7-7-7-7-2-2-2-6-7-7-7-|
E-|--------------------------|-----------------------------------------------|

e-|-------------------|-------------------------------------------------|
B-|-------------------|-------------------------------------------------|
G-|-------------------|-------------------------------------------------|
D-|---8-6-----6-6-6-6-|-4-4-4-8-9-9-9-9-4-4-4-8-9-9-9-9-4-4-4-8-9-9-9-9-|
A-|-6-6-4-4-2-4-4-4-4-|-2-2-2-6-7-7-7-7-2-2-2-6-7-7-7-7-2-2-2-6-7-7-7-7-|
E-|-4-----2-0---------|-------------------------------------------------|

e-|------------------|--------------------------------------------------|
B-|------------------|--------------------------------------------------|
G-|------------------|--------------------------------------------------|
D-|---8-6-----6-6-6-6|------------------4-4-4-4-4-4-4-4-6-6-6-6-6-6-6-6-|
A-|-6-6-4-4-2-4-4-4-4|--6-6-6-6-6-6-6-6-2-2-2-2-2-2-2-2-4-4-4-4-4-4-4-4-|
E-|-4-----2-0--------|--4-4-4-4-4-4-4-4---------------------------------|

e-|-----------------------------------------------------------------|
B-|-----------------------------------------------------------------|
G-|-----------------------------------------------------------------|
D-|---------------------------------4-4-4-4-4-4-4-4-4-4-4-4-4-4-4-4-|
A-|-4-4-4-4-4-4-4-4-6-6-6-6-6-6-6-6-2-2-2-2-2-2-2-2-2-2-2-2-2-2-2-2-|
E-|-2-2-2-2-2-2-2-2-4-4-4-4-4-4-4-4---------------------------------|

e-|-----------------------------------------------------------------|
B-|-----------------------------------------------------------------|
G-|-----------------------------------------------------------------|
D-|-8-8-8-8-8-8-8-8-----------------4-4-4-4-4-4-4-4-----------------|
A-|-6-6-6-6-6-6-6-6-6-6-6-6-6-6-6-6-2-2-2-2-2-2-2-2-4-4-4-4-4-4-4-4-|
E-|-----------------4-4-4-4-4-4-4-4-----------------2-2-2-2-2-2-2-2-|

e-|----------------------------------------|-------------------------|
B-|----------------------------------------|-------------------------|
G-|----------------------------------------|-------------------------|
D-|-8-8-8-8-8-8-8-8----8-6-4-9-6-6-6-6-6-6-|-4-4-4-4-4-4-4-4-3-3-3-3-|
A-|-6-6-6-6-6-6-6-6--6-6-4-2-7-4-4-4-4-4-4-|-2-2-2-2-2-2-2-2-1-1-1-1-|
E-|------------------4---------------------|-------------------------|

e-|-------------------------------------------------|
B-|-------------------------------------------------|
G-|-------------------------------------------------|
D-|-3-3-3-3---------------------------------4-6-8-6-|
A-|-1-1-1-1-6-6-6-6-6-6-6-6-4-4-4-4-4-4-4-4-2-4-6-4-|
E-|---------4-4-4-4-4-4-4-4-2-2-2-2-2-2-2-2---------|

e-|----------------------------------------------------------------------|
B-|----------------------------------------------------------------------|
G-|----------------------------------------------------------------------|
D-|-4-4-4-8-9-9-9-9-4-4-4-8-9-9-9-9-4-4-4-8-9-9-9-9---8-6-----6-6-6-6----|
A-|-2-2-2-6-7-7-7-7-2-2-2-6-7-7-7-7-2-2-2-6-7-7-7-7-6-6-4-4-2-4-4-4-4----|
E-|-------------------------------------------------4-----2-0------------|

e-|-------------------------------------------------------------------|
B-|-------------------------------------------------------------------|
G-|-------------------------------------------------------------------|
D-|-4-4-4-8-9-9-9-9-4-4-4-8-9-9-9-9-4-4-4-8-9-9-9-9---8-6-----6-6-6-6-|
A-|-2-2-2-6-7-7-7-7-2-2-2-6-7-7-7-7-2-2-2-6-7-7-7-7-6-6-4-4-2-4-4-4-4-|
E-|-------------------------------------------------4-----2-0---------|

e-|-------------------------------------------------|
B-|-------------------------------------------------|
G-|-------------------------------------------------|
D-|-----------------4-4-4-4-4-4-4-4-6-6-6-6-6-6-6-6-|
A-|-6-6-6-6-6-6-6-6-2-2-2-2-2-2-2-2-4-4-4-4-4-4-4-4-|
E-|-4-4-4-4-4-4-4-4---------------------------------|

e-|-----------------------------------------------------------------|
B-|-----------------------------------------------------------------|
G-|-----------------------------------------------------------------|
D-|---------------------------------4-4-4-4-4-4-4-4-4-4-4-4-4-4-4-4-|
A-|-4-4-4-4-4-4-4-4-6-6-6-6-6-6-6-6-2-2-2-2-2-2-2-2-2-2-2-2-2-2-2-2-|
E-|-2-2-2-2-2-2-2-2-4-4-4-4-4-4-4-4---------------------------------|

e-|-----------------------------------------------------------------|
B-|-----------------------------------------------------------------|
G-|-----------------------------------------------------------------|
D-|-8-8-8-8-8-8-8-8-----------------4-4-4-4-4-4-4-4-----------------|
A-|-6-6-6-6-6-6-6-6-6-6-6-6-6-6-6-6-2-2-2-2-2-2-2-2-4-4-4-4-4-4-4-4-|
E-|-----------------4-4-4-4-4-4-4-4-----------------2-2-2-2-2-2-2-2-|

e-|----------------------------------------|
B-|----------------------------------------|
G-|----------------------------------------|
D-|-8-8-8-8-8-8-8-8----8-6-4-9-6-6-6-6-6-6-|
A-|-6-6-6-6-6-6-6-6--6-6-4-2-7-4-4-4-4-4-4-|
E-|------------------4---------------------|

e-|-----------------------------------------------------------|
B-|-----------------------------------------------------------|
G-|-----------------------------------------------------------|
D-|-9-9-9-9-8-8-8-8-9-9-9-9---------9-9-9-9-8-8-8-8-9-9-9-9-8-|
A-|-------------------------9-9-9-9---------------------------|
E-|-----------------------------------------------------------|

e-|----------------------------------------------------------------------|
B-|----------------------------------------------------------------------|
G-|----------------------------------------------------------------------|
D-|-9-9-9-9-8-8-8-8-9-9-9-9---------9-8-6-9-11-13------11-11-12-13-11-11-|
A-|-------------------------9-9-9-9--------------------------------------|
E-|----------------------------------------------------------------------|

e-|---------------------------------------------------------------------|
B-|---------------------------------------------------------------------|
G-|---------------------------------------------------------------------|
D-|-12-13-11-13-11-9-8-11-11-12-13-11-11-12-13-11-13-11-9-8-11-11-12-13-|
A-|---------------------------------------------------------------------|
E-|---------------------------------------------------------------------|

e-|---------------------------------------------------|
B-|---------------------------------------------------|
G-|---------------------------------------------------|
D-|-11-11-12-13-11-12-11-9-8-11-11-12-13-11-13-11-9-8-|
A-|---------------------------------------------------|
E-|---------------------------------------------------|

e-|-----------------------------------------------------------------|
B-|-----------------------------------------------------------------|
G-|-----------------------------------------------------------------|
D-|-4-4-4-4-4-4-4-4-3-3-3-3-3-3-3-3---------------------------------|
A-|-2-2-2-2-2-2-2-2-1-1-1-1-1-1-1-1-6-6-6-6-6-6-6-6-4-4-4-4-4-4-4-4-|
E-|---------------------------------4-4-4-4-4-4-4-4-2-2-2-2-2-2-2-2-|

e-|--------------|
B-|--------------|
G-|--------------|
D-|----8-6-5-4-5-|
A-|-6--6-4-3-2-3-|
E-|-4------------|
Tap to rate this tab
 
# A B C D E F G H I J K L M N O P Q R S T U V W X Y Z