Song name
# A B C D E F G H I J K L M N O P Q R S T U V W X Y Z

Lagwagon - Razorburn tab

Intro
e|-------------------|-----------|
B|-------------------|-----------|
G|-------------------|-----------|
D|-11-11-11-11-(X3)--|------8886-|
A|-9--9--9--9--------|-9-9--6664-|
E|-------------------|-7-7-------|
Intro variation
e|-----------------------------|-----------|
B|-----------------------------|-----------|
G|-----------------------------|-----------|
D|----------------8-8-8-8-(X2)-|------8886-|
A|-10-10-10-11----8-8-8-8------|-9-9--6664-|
E|-8--8--8--9------------------|-7-7-------|

Verse
(She broke up with me...)
e|------------------------------------------|
B|------------------------------------------|
G|------------------------------------------|
D|-11-------11------11-------11----8--6-----|
A|-9---11---9---9---9---11---9--9--6--4-----|
E|-----9--------7-------9-------7-----------|
(Now all my friends are gonna...)
e|-------------------------------------------|
B|-------------------------------------------|
G|-------------------------------------------|
D|-11-------11------11-------11----8--6------|
A|-9---11---9---9---9---11---9--9--6--4--4---|
E|-----9--------7-------9-------7--------2---|

Chorus
(On the night she left me...)
e|------------------|
B|------------------|
G|------------------|
D|------------------|
A|-4--6--9--10-(X2)-|
E|-2--4--7--9-------|

Intro
e|-------------------|-----------|
B|-------------------|-----------|
G|-------------------|-----------|
D|-11-11-11-11-(X3)--|------8886-|
A|-9--9--9--9--------|-9-9--6664-|
E|-------------------|-7-7-------|

Intro variation
e|-----------------------------|-----------|
B|-----------------------------|-----------|
G|-----------------------------|-----------|
D|----------------8-8-8-8-(X2)-|------8886-|
A|-10-10-10-11----8-8-8-8------|-9-9--6664-|
E|-8--8--8--9------------------|-7-7-------|

Verse
(I\'ve heard it said she looks a lot...)
e|------------------------------------------|
B|------------------------------------------|
G|------------------------------------------|
D|-11-------11------11-------11----8--6-----|
A|-9---11---9---9---9---11---9--9--6--4-----|
E|-----9--------7-------9-------7-----------|

Verse
(It\'s over, she left me and she will...)
e|--------------------------------------------------------|
B|--------------------------------------------------------|
G|--------------------------------------------------------|
D|-11-------11------11-------11----8--6-------------------|
A|-9---11---9---9---9---11---9--9--6--4--4>>>(let ring)---|
E|-----9--------7-------9-------7--------2>>>(let ring)---|

Bridge
guitar 1                          guitar 2
e|-----------------------|        e|-----------------|
B|-----------------------|        B|-----------------|
G|-----------------------|        G|-----------------|
D|-----------------------|        D|-----------------|
A|-11-15-16--13-16-15-11-|        A|-4--8-9--6-9-8-4-|
E|-9--13-14--11-14-13-9--|        E|-2--6-7--4-7-6-2-|

Final verse
Verse
(Come all be faithful, joyful and triumphant...)
e|------------------------------------------------------------------------------------|
B|------------------------------------------------------------------------------------|
G|------------------------------------------------------------------------------------|
D|-11-------11------11-------11------11------11---------------------11>>>(let ring)---|
A|-9---11---9---9---9---11---9---9---9---9---9---9-9-9-9-9-9-9/11---9->>>(let ring)---|
E|-----9--------7-------9--------7-------7-------7-7-7-7-7-7-7/9----------------------|

Ending solo
e|-5-4-0--7-4-0--5-4-0------12|
B|----------------------------|
G|----------------------------|
D|----------------------------|
A|----------------------------|
E|----------------------------|

There it is, I\'m not 100% sure of what I tabbed, but if you see mistakes, 
e-mail me please, thank you and rate it ! And I suggest you listen to 
the song to learn it better.

Here are the lyrics:

She broke up with me, two days later
I think she met her Don Juan in, Italy
She has a new man, I have a new mustache

Now all my friends are gonna call me mountain man
And everyone will think that I\'m a stupid drifter
To walk the earth alone, I\'ll never shave again

On the night she left me, facial hair grew miraculously
I dressed in black like Johnny Cash, and grew this beard of shame

I\'ve heard it said she looks a lot like, Sherilyn Fenn
And sometimes I\'m mistaken for, Billy Gibbons
I may appear wise, but I\'m an idiot

It\'s over, she left me, and she will soon forget me
She found out I was lame, I grew a beard of shame

Come all be faithful, joyful and triumphant
I am a new man, I have a beard of shame
Tap to rate this tab
 
# A B C D E F G H I J K L M N O P Q R S T U V W X Y Z