Guitaretab - guitar tabs
Song name
# A B C D E F G H I J K L M N O P Q R S T U V W X Y Z

Lagwagon - Kids Are All Wrong tab

Highlighted       Show chord diagrams
CHORDS USED:

     G     F#     C     A     D     Em

e----3-----2------0-----0-----2------0-------|
B----0-----2------1-----2-----3------0-------|
G----0-----3------0-----2-----2------0-------|
D----0-----4------2-----2-----0------2-------|
A----2-----4------3-----0------------2-------|
E----3-----2-------------------------0-------|


INTRO (this is actually played on a piano. listen to the song for the timing)

e---3-------3--5---------5--3--2--3--------3-------|
B-----------------3--------------------------------|
G--------------------------------------------------|
D--------------------------------------------------|
A--------------------------------------------------|
E--------------------------------------------------|
[ Tab from: http://www.guitaretab.com/l/lagwagon/72863.html ]
SONG (this is basically two bars on each chord, apart from the A and G
through "...hopeless opinions, the kids are all..." - only one bar each.
I did it with chords because it's easier to show how the music fits in
with the vocals.  On the very last 'G' chord, just strike it once and
let ring)

G             F#                 C              A
Def, Watching cars, And focus on one, 'Til it's gone,

       G              F#                     C            A
Heroes die, Off every day, Like fathers they would, Never stay,

                 D                       F#
The kids are all wrong, The kids are all wrong,

Em                                 G
  They're full of there hopeless opinions,
A                   D                       F#
  The kids are all wrong, The kids are all wrong,

Em                          G
   That's all I ever really learned
Related for Kids Are All Wrong tab
Advertisement will be closed in 10 seconds