Song name
# A B C D E F G H I J K L M N O P Q R S T U V W X Y Z

Lagwagon - Whipping Boy tab

intro:
e-|------------------------------------------------|
B-|------------------------------------------------|
G-|------------------------------------------------|
D-|-----2-4-------------2-4-x-x-4-5-2-4------2-4---|
A-|---5-------5-4-----5-------------------5------2-|
E-|-3-------5-----5-3-------------------3--------0-|
verse:riff 1
e-|-------------------------------------------------------------------------|
B-|-------------------------------------------------------------------------|
G-|-4-6-7-11-11-11-11---------------------------------4-6-7-11-11-11-11-----|
D-|-x-x-x--x--x--x--x-4-4-4-4-4-4-4-4-2-2-2-2-2-2-2-2-x-x-x--x--x--x--x-----|
A-|-2-4-5--9--9--9--9-2-2-2-2-2-2-2-2-0-0-0-0-0-0-0-0-2-4-5--9--9--9--9-----|
E-|-------------------------------------------------------------------------|

e-|-------------------------------------------------------------------------|
B-|-------------------------------------------------------------------------|
G-|-------------------------------------------------------------------------|
D-|-4-4-4-4-4-4-4-4-2-2-2-2-------------------------------------7-7-7-7---9-|
A-|-2-2-2-2-2-2-2-2-0-0-0-0-4-4-4-4-5-5-5-5-5-5-5-5-7-7-7-7-5-7-5-5-5-5-9-7-|
E-|-------------------------2-2-2-2-3-3-3-3-3-3-3-3-5-5-5-5-------------7---|
riff 2                                        riff 3
e-|-----------------------------------------|-------------------------|
B-|-----------------------------------------|-------------------------|
G-|-----------------------------------------|-------------------------|
D-|-------------------------4-4-4-4---------|-7-7-7-------------------|
A-|-5-5-5-5-7-7-7-7-2-2-2-2-2-2-2-2-5---4---|-5-5-5-4-4-4-5-5-5-7-7-7-|
E-|-3-3-3-3-5-5-5-5-0-0-0-0---------3---5---|-------2-2-2-3-3-3-5-5-5-|
riff 4
e-|-------------------------------------------------------------------------|
B-|-------------------------------------------------------------------------|
G-|-------------------------------------------------------------------------|
D-|-7-7-7-7-7-7-7-7-7-7-7-7-7-7-7-7---------------------------------4-4-4-4-|
A-|-5-5-5-5-5-5-5-5-5-5-5-5-5-5-5-5-4-4-4-4-4-4-4-4-4-4-4-4-4-4-4-4-2-2-2-2-|
E-|---------------------------------2-2-2-2-2-2-2-2-2-2-2-2-2-2-2-2---------|

e-|---------------------------------------------------------|
B-|---------------------------------------------------------|
G-|---------------------------------------------------------|
D-|-4-4-4-4-4-4-4-4-4-4-4-4---------------------------------|
A-|-2-2-2-2-2-2-2-2-2-2-2-2-5-5-5-5-5-5-5-5-5-5-5-5-5-5-7-7-|
E-|-------------------------3-3-3-3-3-3-3-3-3-3-3-3-3-3-5-5-|
bridge:
e-|-------------------------------------------------------------------|
B-|-------------------------------------------------------------------|
G-|-------------------------------------------------------------------|
D-|-7-x-x-x-7-5-x-x-x-5-4-x-x-x-4-2-x-x-x-2---------------------------|
A-|-5-x-x-x-5-3-x-x-x-3-2-x-x-x-2-0-x-x-x-0-5-x-x-x-5-2-2-2-2-4-4-4-4-|
E-|-----------------------------------------3-x-x-x-3-0-0-0-0-2-2-2-2-|

e-|-------------------------------------------------------------------------|
B-|-------------------------------------------------------------------------|
G-|-------------------------------------------------------------------------|
D-|-5-4-2-----2-4-7-7-7-7-2-2-2-2-4-4-4-4-----------------------------------|
A-|------5-4-5----5-5-5-5-0-0-0-0-2-2-2-2-4-4-4-4-x-x-5-x-x-5-x-x-5-x-x-5-7-|
E-|---------------------------------------2-2-2-2-x-x-3-x-x-3-x-x-3-x-x-3-5-|
outro:
e-|------------------------------------------------|
B-|------------------------------------------------|
G-|------------------------------------------------|
D-|-----2-4-------------2-4------------------------|
A-|---5-------5-4---2-5-------5-4------5-4---5-4-5-|
E-|-3-------5-----5---------2-----5--3-----5-----3-|
Tap to rate this tab
# A B C D E F G H I J K L M N O P Q R S T U V W X Y Z