Song name
# A B C D E F G H I J K L M N O P Q R S T U V W X Y Z

Laibach - Die Leibe tab

    ---------------------Die Leibe, Laibach--------------------

      .-means stacato

      Intro:
   E |--------------------------|
   B |--------------------------|
   G |--------------------------|
   D |-6---------5---------3----|
   A |-6---------5---------3----|
   D |-4---------3---------1----|


      Main riff:
   E |---------------------------|
   B |---------------------------|
   G |---------------------------|
   D |-5-5-5-4/5-5-5-5-5-5-4--5--|
   A |-5-5-5-4/5-5-5-5-5-5-4--5--|
   D |-3-3-3-2/3-3-3-3-3-3-2--3--|

      Another riff:
   E |---------------------------|
   B |---------------------------|
   G |---------------------------|
   D |-5-5-5-4/5-5-5-5-5-5-5-5---|
   A |-5-5-5-4/5-5-5-5-5-5-5-5---|
   D |-5-5-5-4/5-5-5-5-5-5-5-5---|
                           . .


This is the first song I have ever tabed, so if there are mistakes thats why.  If you 
you can email me
corrections at Rammstein581@yahoo.com.

Tabbed by K.Hinkle.
Tap to rate this tab
# A B C D E F G H I J K L M N O P Q R S T U V W X Y Z