Song name
# A B C D E F G H I J K L M N O P Q R S T U V W X Y Z

Laika And The Cosmonauts - Ny 79 tab

Laika and the Cosmonauts:

http://www.grandpop.net/bands.html
http://www.myspace.com/laikaandthecosmonauts

Theme 1:

e|---------------------------------------|
B|-----------2----5---4h5p4-----2--2-----|
G|-2------2------------------------------|
D|---------------------------------------|
A|---------------------------------------|
E|---------------------------------------|


e|------------------------7----7b9-------|
B|-------------2----5--------------------|
G|-2-2------2----------------------------|
D|---------------------------------------|
A|---------------------------------------|
E|---------------------------------------|


Theme 2:


e|---------------------------------------|
B|---------------------------------6-----|
G|---------------------------------------|
D|--7-----7--7--6--4-----6----4h6--------|
A|---------------------------------------|
E|---------------------------------------|


e|------------------------------------------|
B|------------------------------------------|
G|-----------------------------9--9--9--9---|
D|--9-----9-9-9--7---6--6------9--9--9--9---|
A|-----------------------------7--7--7--7---|
E|------------------------------------------|


Theme 3:

e|-7-----7s9------------------------------------|
B|-----------9-----------7----7s9---------------|
G|------------------9-------------9----------9--|
D|-------------------------------------11-------|
A|----------------------------------------------|

e|--------------------------------------------------|
B|---------------------------------------10----9----|
G|------------9--------9-------------10-------------|
D|--9---9s11------11------9----9s11-----------------|
A|--------------------------------------------------|
E|--------------------------------------------------|

e|-7-----7s9------------------------------------|
B|-----------9-----------7----7s9---------------|
G|------------------9-------------9----------9--|
D|-------------------------------------11-------|
A|----------------------------------------------|

e|-----------------------------------------------------------------|
B|-----------------------------------------------------------------|
G|------------9--------9-------------------------------------------|
D|--9---9s11------11------9----9s11--11s9--9s7--7s6--6s7--7--------|
A|-----------------------------------------------------------------|
E|-----------------------------------------------------------------|
Tap to rate this tab
 
# A B C D E F G H I J K L M N O P Q R S T U V W X Y Z