Song name
# A B C D E F G H I J K L M N O P Q R S T U V W X Y Z

Lailas Lounge - Mawar Khayalan tab

Help us improve GuitareTab! Take a short survey!
Intro

e-----10-----10-12-10-----------10-----10-12-10--------|
B--12----12-----------12-----12----12-----------12-----|
G------------------------------------------------------|
D------------------------------------------------------|
A------------------------------------------------------|
E------------------------------------------------------|

e------------------------------------------------------|
B-----10----10-12-10-----------10----12-10----10-------|
G--12----12----------12-----12----12-------12----------|
D------------------------------------------------------|
A------------------------------------------------------|
E------------------------------------------------------|

e-----10-10-12-10------------10----10-12-10------------|
B--12-------------12------12----12----------12---------|
G------------------------------------------------------|
D------------------------------------------------------|
A------------------------------------------------------|
E------------------------------------------------------|

e------------------------------------------------------|
B-----10----10-12-10---------------101010--------10/7~-|
G--12----12----------12-----121212--------121212-------|
D------------------------------------------------------|
A------------------------------------------------------|
E------------------------------------------------------|

Please Rate...TQ.
Related for Mawar Khayalan tab