Song name
# A B C D E F G H I J K L M N O P Q R S T U V W X Y Z

Lain - Lains Theme tab

Serial Experiments Lain Soundtrack
   Lain's Theme (reprise)
 by Nakaido "Chabo" Reichi

  standard tuning - EADGBE
/ = slide up  \ = slide down
~ = vibrato  ~~ = wide vibrato

-------------------------------|
-------------------------------|
-------------------------------|
-------------------------------|
-2----1-2~----/5-----------10\-|  repeat
---2-3-----------6-72~-0-------|   once

----------------------------------|
----------------------------------|
----------------------------------|
--2~-3----0-------0---------------|
-3--3--0-3--20---2--04-0-----/10\-|
---------------2---------2~~------|

---------------------------------|
---------------------------------|
---------------------------------|
---------------------------------|
-2----1-2~-/10-/5-----------/10\-| repeat
---2-3-----------6-72--0---------|   once

-------------------------------|
-------------------------------|
-------------------------------|
--2~-3----0-------0------------|
-3--3--0-3--20---2--04-0-------|   fade
---------------2---------2~~---|    out



  /5------    can be    /5-1-2---|
  ---6-72~  changed to  ------2~-|
Tap to rate this tab
 
# A B C D E F G H I J K L M N O P Q R S T U V W X Y Z