Song name
# A B C D E F G H I J K L M N O P Q R S T U V W X Y Z

Lake Of Tears - Forever Autumn tab

1.) So fell autumn rain


Tuning: D (1 whole step down)

Intro:
(same as chorus)

Verse:

3x
|---------------------------------------------------------------------|
|---------------------------------------------------------------------|
|---------------------------------------------------------------------|
|---------------------------------------------------------------------|
|-7---7-7-7-7-7-7-7-7-7-7-7-7-7-7---5---5-5-5-5-5-5-5-5-5-5-5-5-5-5---|
|-5---5-5-5-5-5-5-5-5-5-5-5-5-5-5---3---3-3-3-3-3-3-3-3-3-3-3-3-3-3---|

1x
|---------------------------------------------------------------------|
|---------------------------------------------------------------------|
|---------------------------------------------------------------------|
|---------------------------------------------------------------------|
|-3---3-3-3-3-3-3-3-3-3-3-3-3-3-3---5---5-5-5-5-5-5-5-5-5-5-5-5-5-5---|
|-1---1-1-1-1-1-1-1-1-1-1-1-1-1-1---3---3-3-3-3-3-3-3-3-3-3-3-3-3-3---|


Chorus:
|-----------------------------------------------------------------|
|-----------------------------------------------------------------|
|-----------------------------------------------------------------|
|-----------------------------------------------------------------|
|-7---7---7---7---7---7---7---7---5---5---5---5---5---5---5---5---|
|-5---5---5---5---5---5---5---5---3---3---3---3---3---3---3---3---|

|-----------------------------------------------------------------|
|-----------------------------------------------------------------|
|-----------------------------------------------------------------|
|-----------------------------------------------------------------|
|-3---3---3---3---3---3---3---3---5---5---5---5---5---5---5---5---|
|-1---1---1---1---1---1---1---1---3---3---3---3---3---3---3---3---|

The solo is played over the verse riff played on an aucoustic guitar.
The following chords are played:
3x Gm F
1x D# F

2.) Hold on tight

Tuning: E (normal)

Aucoustic intro:

Gm
When I close my eyes tonight

Bb                              F
Down my dreams the velvet raven flies

Gm
So I hold on tight

Distorted intro:
|-----------------|
|-----------------|
|-----------------|
|-----------------|
|-5---5-8-7-5-3---|
|-3---3-6-5-3-1---|

Verse:
|------------------------------------------------------------|
|------------------------------------------------------------|
|------------------------------------------------------------|
|------------------------------------------------------------|
|-5--------------8--------------3--------------5-------------|
|-3--------------6--------------1--------------3-------------|

Chorus:
|------------------------------------------------------------|
|------------------------------------------------------------|
|------------------------------------------------------------|
|------------------------------------------------------------|
|-5--------------3--------------5--------------3-------------|
|-3--------------1--------------3--------------1-------------|

Solo:
|----------------------------------------------------------------|
|----------------------------------------------------------------|
|-------19--15--17-/19~~~----19-19--14h17p14h17--/19--14~~~------|
|----------------------------------------------------------------|
|-17~------------------------------------------------------------|
|----------------------------------------------------------------|
  G                             D
|----------------------------------------------------------------|
|----------------------------------------------------------------|
|----------------------------------------------------------------|
|-17-------------------------------------------------------------|
|-----17-h19--15--17--19--15-17-19-15--17--19--15-15~~~~\14~~~---|
|----------------------------------------------------------------|
  F                                               C
|----------------------------------------------------------------|
|--------15~~--13h15/17~~/18~~--15h17-b17--b17--b17--b17--15~~~--|
|-15h17----------------------------------------------------------|
|----------------------------------------------------------------|
|----------------------------------------------------------------|
|----------------------------------------------------------------|
  G                             D
|----------------------------------------------------------------|
|----------------------------------------------------------------|
|-15b---14-------------------------------------------------------|
|--------------15b-------(quiet 14 - 15 trill)-------------------|
|--------------------------------------------------15------------|
|----------------------------------------------------------------|
  F                              C
|-/22b~~----22~--18p17-18p17-------------------------------------|
|-----------------------------18-17-17h18~--18-17-18-17----------|
|---------------------------------------------------------17-----|
|----------------------------------------------------------------|
|----------------------------------------------------------------|
|----------------------------------------------------------------|
  G                                    D
|----------------------------------------------------------------|
|----------------------------------------------------------------|
|--15-h17---17p15-17p15---------------------14-----------14------|
|-----------------------17------15-15h17--------15-15h17---------|
|----------------------------------------------------------------|
|----------------------------------------------------------------|
      F                              C
|----------------------------------------------------------------|
|----------------------------------------------------------------|
|-----------14---------------------------------------------------|
|--15-15h17-------14-14h15---------------------------------------|
|----------------------------------------------------------------|
|----------------------------------------------------------------|

Aucoustic outro:
F                   Gm
Better hold on tight


3.) Forever Autumn

-by Tolga "Incánus" Erturk <39199149@ICQ>-

Bb                             Gm
So, the season of the fall begins
Bb                       Gm
Down the crossroads in a sleepy little inn
Bb                            Gm
By the fire when the sun goes down

F
But the night becomes you
F                        Bb
And the secrets of the rain

F
  Forever autumn

Bb/Gm

Bb                             Gm
And the season of the fall begins
Bb                          Gm
Out the nightlands when the thunderstorm sets in
Bb                              Gm
The secrets clear in the cloudy night

F
But the night becomes you
F                        Bb                     Gm
And the secrets of the rain, they will stay the same
F
And the time will come soon
F                        Bb                 Gm
With the secrets of the rain, and the storm again

F/Bb

Bb                  F
Coming closer every day, forever autumn

Bb/Bb/Gm

Bb                             Gm
And the season of the fall begins
Bb                    Gm
Past the passingbell, past willow´s weeping
Bb                              Gm
A ripple forms on the brinks of time

F
But the night becomes you
F                        Bb                     Gm
And the secrets of the rain, they will stay the same
F
And the time will come soon
F                        Bb                   Gm
With the secrets of the rain, and the storm again

F/Bb

Bb                  F
Coming closer every day, forever autumn

-----

F/Bb

Bb                  F
Coming closer every day, forever autumn


4.) Pagan Wish

Main Riff :

-----------|----------------|----------------|--------------|
-----------|----------------|----------------|--------------|
-----------|----------------|----------------|--------------|
--5-4-2----|-7-5-4-5-4-2----|-7-5-4-5-4-0----|-0-2-4--5-4-2-|
--5-4-2----|-7-5-4-5-4-2----|-7-5-4-5-4-0----|-0-2-4--5-4-2-|
--5-4-2----|-7-5-4-5-4-2----|-7-5-4-5-4-0----|-0-2-4--5-4-2-|



Interlude to      Refrain :

-----------------|-------------------------------------------|
-----------------|-------------------------------------------|
-----------------|-------------------------------------------|
-----------------|-7----5----0-------------------------------|
-----------------|-7----5----0-------------------------------|
--7--5-4-2-0-2-5-|-7----5----0--(0-1-0-1-0-0-0--0-1-0-1-0-0)-|
                                (Bass)


Bridge :

--------------------|
--------------------|
--------------------|
---5------2--4-5-2--|
---5------2---------|
---5------2---------|


5.) Otherwheres

Standard E Tuning

Used Chords:
---0-------1-------3----------------------0------------------
---1-------1-------3----------------------1------------------
---2-------2-------0----------------------0------------------
---2-------3-------0----------------------2------------------
---0-------x-------2----------------------3------------------
---0-------x-------3----------------------0------------------
A Minor  F Major  G Major with added D   C Major


Fade in guitar strumming G after piano intro, then advance to the following progression:

Am, C, F, C, G

Repeat until drums enter, then simply
F, G

Repeat until end of song, where there is a last Am that is upstroked slowly

Tips: One of the main strumming tricks Daniel is doing when he plays Otherwheres is
releasing and depressing his index finger while strumming A minor, which gives
the following chord: (I'm unsure if it has a name)
----0--------
----0--------
----2--------
----2--------
----0--------
----0--------
He also alternates between up and down strokes heavily during the song.


6.) The Homecoming

(Intro) same chords as verse.


d                             d                         d
  It's the was of cosmic sailor, in a boat in the night
                         c                 d
  But the wolves are not scaring him, he's alright
d                                        d                d
  just the day, just the day away, I can feel it sometimes
                          c             d
  But the wolves are not scaring me, I long for twighlight


F                G
  Then with the morning comes
       d                                       c              d
  The sun that finds them all, so divides the night and they die
F               G
  And with the morning sun
       d                                C         d
  A lonely teardrop falls down from my eye and i die


A#                                d
  But where did all the cosmic sailors come from
A#                           d
  far away from across the sea
A#                                d
  And where have all the cosmic sailors now gone
C                                       d
  And the night that showed them all to me

Interlude (Intro)

(play same as first verse)
On the waves of this silver ocean, for a while there he smiles
As he sails with the other ones, the wind dies
So a cry, so a cry is calling, all the wolves among the night
As i sail with the other ones, I find them alright

(play same as first refrain)
Then with the morning comes
The sun that finds them all, so divides the night and they die
And with the morning sun
A lonely teardrop falls down from my eye and i die

Solo

Refrain x 2


7.) Come Night I Reign

Normal Tuning

Intro :

 Gm                      Gm/A#
-------------------------------------|
-------------------------------------|
----------3-----------3-----------3--|
-------5-----------5-----------5-----|
----5-----------5-----------5--------|
-3-----------3-----------6-----------|



1st verse :

Gm
Come night comes shadows to your side
Gm
Come night comes every tear you cried
Gm/A#
come night so comes your time to see

Gm | Gm


2nd verse similiar to the first.

Refrain :

Bb
Come night Iґm there again

C
Come night, Come night i reign

G5 | G5 | Bb5 |

G5    C5       Bb5
Hey,    Beware, for the night will find you
G5    C5       Bb5 G5
Hey,    Beware, for I am there behind you

G5     C5      Bb5 G5  A5
  Hey,  Beware, I slay


8.) Demon You Lily Anne


Intro transcribed for guitar, originaly played by cello.
Normal tuning. E-phrygian.

|--------------------------------------------|
|--------------------------------------------|
|--------------------------------------------|
|----------------0---------------------------|
|-0--2--3--2--0-----3--2--0--2--3--2---------|
|------------------------------------1-3-0---|


Main Riff
-----------------|------------------|-----------------|------------------|
-----------------|------------------|-----------------|------------------|
-----------------|------------------|-----------------|------------------|
-7-7-7-7-7-7-7-7-|-5-5-5-5-5-5-10-9-|-7-7-7-7-7-7-7-7-|-5-5-5-5-5-5-10-9-|
-7-7-7-7-7-7-7-7-|-5-5-5-5-5-5-10-9-|-7-7-7-7-7-7-7-7-|-5-5-5-5-5-5-10-9-|
-5-5-5-5-5-5-5-5-|-3-3-3-3-3-3-8--7-|-5-5-5-5-5-5-5-5-|-3-3-3-3-3-3-8--7-|

                                   |>> 1 & 2          |>> 3
                                   |                  |
-----------------|-----------------|-----------------||-----------------|
-----------------|-----------------|-----------------||-----------------|
-----------------|-----------------|-------------5-4-||-----------------|
-7-7-7-7-7-7-7-7-|-5-5-5-5-5-5-5-5-|-3-3-3-3-3-3-5-4-||-3-3-3-3-3-3-3-3-|
-7-7-7-7-7-7-7-7-|-5-5-5-5-5-5-5-5-|-3-3-3-3-3-3-3-2-||-3-3-3-3-3-3-3-3-|
-5-5-5-5-5-5-5-5-|-3-3-3-3-3-3-3-3-|-1-1-1-1-1-1-----||-1-1-1-1-1-1-1-1-|

                    Interlude (synthesizer transcribed for guitar)
-----------------|  |---------------|----------------|
-----------------|  |---------------|----------------|
-----------------|  |---------------|----------------|
-3-3-3-3-3-3-3-3-|  |-7---12-10-9-5-|-7---12-10-9-14-|
-3-3-3-3-3-3-3-3-|  |---------------|----------------|
-1-1-1-1-1-1-1-1-|  |---------------|----------------|
                    play a few times| ending

9.) To Blossom Blue

Tuning: E (normal)

Verse/Chorus:

|---------0-------------------0-----------|
|-------1---0-0-1-----------1---0-0-1-----|
|-----2-----------2-------2-----------2---|
|---2-------------------2-----------------|
|-0-------------------0-------------------|
|-----------------------------------------|

|-----------------------------------------|
|---------3-------------------3-----------|
|-------4---2-2-4-----------4---2-2-4-----|
|-----5-----------5-------5-----------5---|
|---5-------------------5-----------------|
|-3-------------------3-------------------|


Pre-Chorus:

C                    G
A little something I know

C                    G
A little somewhere I go
              F
Reminds me of you

G
    To blossom ...


The solo is played over the verse/chorus riff
Tap to rate this tab
 
# A B C D E F G H I J K L M N O P Q R S T U V W X Y Z