Song name
# A B C D E F G H I J K L M N O P Q R S T U V W X Y Z

Lake Of Tears - Nathalie And The Fireflies tab

Help us improve GuitareTab! Take a short survey!
Artist: Lake of Tears
Song: Nathalie and the Fireflies
Album: The Neonai
Tabbed by: Kyle McIntyre (moonsblade@hotmail.com)


<-Key->
/ Slide Up
\ Slide Down
~ Vibrato
h hammer on
p pull off
b bend

Standard Tuning

A Few notes about this tab:
There's obviously a fair of instrumentation that may be synth but is
possibly a guitar part with lots of effects. So what I've done is layed
out the basic chord progressions of the songs and the solos to the best
of my interpretation. The strumming of the chords can be picked up by simply
listening to the song, but a tip for success is notice the emphasis on the
off-beats. I hope you enjoy the tab!

Chord Definition:
    G Minor   F         Eb (or) Eb
|-----3-------1---------3--------------------------|
|-----3-------1---------4-------8------------------|
|-----3-------2---------3-------8------------------|
|-----5-------3---------1-------8------------------|
|-----5-------1-----------------6------------------|
|-------------1------------------------------------|

Intro Solo:

|--------------------------------------------------|
|--------------------------------------------------|
|-----------------12~------------------------------|
|-/12~----8h10p8------------12--12p10-8--7--h8p7---|
|--------------------------------------------------|
|--------------------------------------------------|

|--------------------------------------------------|
|-8-10-11-13-15~~------------15---\13~~~-----------|
|--------------------------------------------------|
|--------------------------------------------------|
|--------------------------------------------------|
|--------------------------------------------------|

Verse Chord Progression:

Gm, F, Eb, F (Repeat Four Times)

Chorus: (Strummed)

Gm, F, Gm, F, Gm, F, F, Gm


Solo (Over C,G,F,G,C,G,F,G) ect...



|--------------------------------------------------|
|--------------------------------------------------|
|-------------3--7-5~~~--------3--3/7~~~-----------|
|--------------------------------------------------|
|-------3--5---------------------------------------|
|-3--6---------------------------------------------|

|--------------------------------------------------|
|--------------------------------------------------|
|--3-3h5p3-3---------------------------------------|
|-------------5p3-3-3h5----------------------------|
|--------------------------------------------------|
|--------------------------------------------------|

|--------------------------------------------------|
|--------------------------------------------------|
|-/7b---7--7--7-7-p5--3-2-h3-p2----3p2-------------|
|----------------------------------------3--3h5----|
|--------------------------------------------------|
|--------------------------------------------------|

|--------------------------------------------------|
|--15-16-18-15--16--13-----------------------------|
|-----------------------15--15/17~~----------------|
|--------------------------------------------------|
|--------------------------------------------------|
|--------------------------------------------------|

|--------15----------------------------------------|
|--15-16----15--18--13-----------------------------|
|-----------------------15--15/17~~----------------|
|--------------------------------------------------|
|--------------------------------------------------|
|--------------------------------------------------|

|--------18-15--17---------------------------------|
|--16-18------------18--16--13/15~~----------------|
|--------------------------------------------------|
|--------------------------------------------------|
|--------------------------------------------------|
|--------------------------------------------------|

|--------------------------------------------------|
|--------------------------------------------------|
|--17p15--14h15--14h15p14h15p----------------------|
|--------------------------------15--15h17~--------|
|--------------------------------------------------|
|--------------------------------------------------|

|--------------------------------------------------|
|--------------------------------------------------|
|--17p15--14h15--14h15p14h15p----------------------|
|--------------------------------15--15h17~--------|
|--------------------------------------------------|
|--------------------------------------------------|
Related for Nathalie And The Fireflies tab