Song name
# A B C D E F G H I J K L M N O P Q R S T U V W X Y Z

Lake Of Tears - Hold On Tight tab

Artist: Lake of Tears
Album: Forever Autumn
Song: Hold on Tight (Solo)
Tabbed by Kyle McIntyre (moonsblade@hotmail.com)

Drop D Tuning

<-Key->
/ Slide Up
\ Slide Down
~ Vibrato
h hammer on
p pull off
b bend

A few notes about this tab:
The notes below the tab represent the pitches that the bass is playing
beneath the solo. They last for two measures each, and go in the order G,D,F,C.
That should help you figure out where you're at in the song/tab.
Note that when the solo goes up the the 22nd fret, making the right pitches can
be hard, especially with a craptastic guitar such as the one I have.
Practice bending the notes until they fit, because I'm quite sure
those are the right frets. Enjoy!

|----------------------------------------------------------------|
|----------------------------------------------------------------|
|-------19--15--17-/19~~~----19-19--14h17p14h17--/19--14~~~------|
|----------------------------------------------------------------|
|-17~------------------------------------------------------------|
|----------------------------------------------------------------|
  G                             D
|----------------------------------------------------------------|
|----------------------------------------------------------------|
|----------------------------------------------------------------|
|-17-------------------------------------------------------------|
|-----17-h19--15--17--19--15-17-19-15--17--19--15-15~~~~\14~~~---|
|----------------------------------------------------------------|
  F                                               C
|----------------------------------------------------------------|
|--------15~~--13h15/17~~/18~~--15h17-b17--b17--b17--b17--15~~~--|
|-15h17----------------------------------------------------------|
|----------------------------------------------------------------|
|----------------------------------------------------------------|
|----------------------------------------------------------------|
  G                             D
|----------------------------------------------------------------|
|----------------------------------------------------------------|
|-15b---14-------------------------------------------------------|
|--------------15b-------(quiet 14 - 15 trill)-------------------|
|--------------------------------------------------15------------|
|----------------------------------------------------------------|
  F                              C
|-/22b~~----22~--18p17-18p17-------------------------------------|
|-----------------------------18-17-17h18~--18-17-18-17----------|
|---------------------------------------------------------17-----|
|----------------------------------------------------------------|
|----------------------------------------------------------------|
|----------------------------------------------------------------|
  G                                    D
|----------------------------------------------------------------|
|----------------------------------------------------------------|
|--15-h17---17p15-17p15---------------------14-----------14------|
|-----------------------17------15-15h17--------15-15h17---------|
|----------------------------------------------------------------|
|----------------------------------------------------------------|
      F                              C
|----------------------------------------------------------------|
|----------------------------------------------------------------|
|-----------14---------------------------------------------------|
|--15-15h17-------14-14h15---------------------------------------|
|----------------------------------------------------------------|
|----------------------------------------------------------------|

Tap to rate this tab
 
# A B C D E F G H I J K L M N O P Q R S T U V W X Y Z