Song name
# A B C D E F G H I J K L M N O P Q R S T U V W X Y Z

Lake Of Tears - Pagan Wish tab

Author/Artist: Lake Of Tears
Title: Pagan Wish
Album: Forever Autumn


drop D Tuning

Main Riff :

-----------|----------------|----------------|--------------|
-----------|----------------|----------------|--------------|
-----------|----------------|----------------|--------------|
--5-4-2----|-7-5-4-5-4-2----|-7-5-4-5-4-0----|-0-2-4--5-4-2-|
--5-4-2----|-7-5-4-5-4-2----|-7-5-4-5-4-0----|-0-2-4--5-4-2-|
--5-4-2----|-7-5-4-5-4-2----|-7-5-4-5-4-0----|-0-2-4--5-4-2-|



Interlude to      Refrain :

-----------------|-------------------------------------------|
-----------------|-------------------------------------------|
-----------------|-------------------------------------------|
-----------------|-7----5----0-------------------------------|
-----------------|-7----5----0-------------------------------|
--7--5-4-2-0-2-5-|-7----5----0--(0-1-0-1-0-0-0--0-1-0-1-0-0)-|
                                (Bass)


Bridge :

--------------------|
--------------------|
--------------------|
---5------2--4-5-2--|
---5------2---------|
---5------2---------|



Tap to rate this tab
# A B C D E F G H I J K L M N O P Q R S T U V W X Y Z