Song name
# A B C D E F G H I J K L M N O P Q R S T U V W X Y Z

Lake Of Tears - Otherwheres tab

Help us improve GuitareTab! Take a short survey!
Artist: Lake of Tears
Song: Otherwheres
Album: Forever Autumn


Standard E Tuning

Used Chords:
---0-------1-------3----------------------0------------------|
---1-------1-------3----------------------1------------------|
---2-------2-------0----------------------0------------------|
---2-------3-------0----------------------2------------------|
---0-------x-------2----------------------3------------------|
---0-------x-------3----------------------0------------------|
A Minor  F Major  G Major with added D   C Major


Fade in guitar strumming G after piano intro, then advance to the following progression:

Am, C, F, C, G

Repeat until drums enter, then simply
F, G

Repeat until end of song, where there is a last Am that is upstroked slowly

Tips: One of the main strumming tricks Daniel is doing when he plays Otherwheres is
releasing and depressing his index finger while strumming A minor, which gives
the following chord: (I'm unsure if it has a name)
----0--------|
----0--------|
----2--------|
----2--------|
----0--------|
----0--------|
He also alternates between up and down strokes heavily during the song.
Related for Otherwheres tab