Song name
# A B C D E F G H I J K L M N O P Q R S T U V W X Y Z

Lake Of Tears - Demon Lilly Ann Demon You tab

Author/Artist: Lake of Tears
Title: Demon You / Lily Anne
Album: Forever Autumn

Normal Tuning.


Intro transcribed for guitar, originaly played by cello.
Normal tuning. E-phrygian.

|--------------------------------------------|
|--------------------------------------------|
|--------------------------------------------|
|----------------0---------------------------|
|-0--2--3--2--0-----3--2--0--2--3--2---------|
|------------------------------------1-3-0---|


Main Riff
-----------------|------------------|-----------------|------------------|
-----------------|------------------|-----------------|------------------|
-----------------|------------------|-----------------|------------------|
-7-7-7-7-7-7-7-7-|-5-5-5-5-5-5-10-9-|-7-7-7-7-7-7-7-7-|-5-5-5-5-5-5-10-9-|
-7-7-7-7-7-7-7-7-|-5-5-5-5-5-5-10-9-|-7-7-7-7-7-7-7-7-|-5-5-5-5-5-5-10-9-|
-5-5-5-5-5-5-5-5-|-3-3-3-3-3-3-8--7-|-5-5-5-5-5-5-5-5-|-3-3-3-3-3-3-8--7-|

                                   |>> 1 & 2          |>> 3
                                   |                  |
-----------------|-----------------|-----------------||-----------------|
-----------------|-----------------|-----------------||-----------------|
-----------------|-----------------|-------------5-4-||-----------------|
-7-7-7-7-7-7-7-7-|-5-5-5-5-5-5-5-5-|-3-3-3-3-3-3-5-4-||-3-3-3-3-3-3-3-3-|
-7-7-7-7-7-7-7-7-|-5-5-5-5-5-5-5-5-|-3-3-3-3-3-3-3-2-||-3-3-3-3-3-3-3-3-|
-5-5-5-5-5-5-5-5-|-3-3-3-3-3-3-3-3-|-1-1-1-1-1-1-----||-1-1-1-1-1-1-1-1-|

                    Interlude (synthesizer transcribed for guitar)
-----------------|  |---------------|----------------|
-----------------|  |---------------|----------------|
-----------------|  |---------------|----------------|
-3-3-3-3-3-3-3-3-|  |-7---12-10-9-5-|-7---12-10-9-14-|
-3-3-3-3-3-3-3-3-|  |---------------|----------------|
-1-1-1-1-1-1-1-1-|  |---------------|----------------|
                    play a few times| ending
Tap to rate this tab
# A B C D E F G H I J K L M N O P Q R S T U V W X Y Z