Song name
# A B C D E F G H I J K L M N O P Q R S T U V W X Y Z

Lake Street Dive - Henriette tab

-----------------------------------------------------------------
Henriette - Lake Street Dive
-----------------------------------------------------------------
Tabbed by: Emmett Mills
Email: emills29@gmail.com
Tuning: Standard
Song by: Mike "McDuck" Olson

Please feel free to request a Lake Street Dive tab!

Intro:
           D7    A/D7 D7         D7    A/D7 D7
e|---------------------------------------------------------------|
B|-----------3-3---3-3-------------3-3---3-3---------------------|
G|-----------5-5---5-5-------------5-5---5-5---------------------|
D|-------3---4-4---4-4-------------4-4---4-4---------------------|
A|-----3---5---------5---0-1-2---5---------5---------------------|
E|-5-5-----------5-------------1-------5-------------------------|

           D7    A/D7 D7         D7    A/D7 D7
e|---------------------------------------------------------------|
B|-----------3-3---3-3-------------3-3---3-3---------------------|
G|-----------5-5---5-5-------------5-5---5-5---------------------|
D|-------3---4-4---4-4-------------4-4---4-4---------------------|
A|-----3---5---------5---0-1-2---5---------5---------------------|
E|-5-5-----------5-------------1-------5-------------------------|

1st Verse: play muted

                D7                     B7
Who you fooling now, with your bookish smarts?
e|---------------------------------------------------------------|
B|----------------3---3---3---3----------0---0---0---0-----------|
G|----------------5---5---5---5----------2---2---2---2-----------|
D|----------------4---4---4---4----------1---1---1---1-----------|
A|--------------5-------5--------------2-------2-----------------|
E|------------------5-------5--------------2-------2-------------|

              D7                                             B7
Quotin’ Jamie Joyce, make me feel, make me feel like a total arse
e|---------------------------------------------------------------|
B|----------------3---3---3---3---------0---0---0---0------------|
G|----------------5---5---5---5---------2---2---2---2------------|
D|----------------4---4---4---4---------1---1---1---1------------|
A|--------------5-------5-------------2-------2------------------|
E|------------------5-------5-------------2-------2--------------|

        Cm          G                      F
Got it down like a practiced part; like a perfect art
e|---------------------------------------------------------------|
B|------4-----------3--------------------------------------------|
G|------5-----------4----------------------2---------------------|
D|------5-----------5----------------------3---------------------|
A|------3-----------5----------------------3---------------------|
E|------------------3----------------------1---------------------|

   C7
e|---------------------------------------------------------------|
B|-1-1-1-1-1-1-1-1-----------------------------------------------|
G|-3-3-3-3-3-3-3-3-----------------------------------------------|
D|-2-2-2-2-2-2-2-2-----------------------------------------------|
A|-3-3-3-3-3-3-3-3-----------------------------------------------|
E|---------------------------------------------------------------|

Intro again:
           D7    A/D7 D7         D7    A/D7 D7
e|---------------------------------------------------------------|
B|-----------3-3---3-3-------------3-3---3-3---------------------|
G|-----------5-5---5-5-------------5-5---5-5---------------------|
D|-------3---4-4---4-4-------------4-4---4-4---------------------|
A|-----3---5---------5---0-1-2---5---------5---------------------|
E|-5-5-----------5-------------1-------5-------------------------|

           D7    A/D7 D7         D7    A/D7 D7
e|---------------------------------------------------------------|
B|-----------3-3---3-3-------------3-3---3-3---------------------|
G|-----------5-5---5-5-------------5-5---5-5---------------------|
D|-------3---4-4---4-4-------------4-4---4-4---------------------|
A|-----3---5---------5---0-1-2---5---------5---------------------|
E|-5-5-----------5-------------1-------5-------------------------|

2nd Verse: louder

              D7                     B7
Talk to me at night, with your voice oily
e|---------------------------------------------------------------|
B|--------------3---3---3---3----------0---0---0---0-------------|
G|--------------5---5---5---5----------2---2---2---2-------------|
D|--------------4---4---4---4----------1---1---1---1-------------|
A|------------5-------5--------------2-------2-------------------|
E|----------------5-------5--------------2-------2---------------|

                   D7                                        B7
Think you can’t be broke, what a joke what a joke callin’ me doily
e|---------------------------------------------------------------|
B|-------------------3---3---3---3---------0---0---0---0---------|
G|-------------------5---5---5---5---------2---2---2---2---------|
D|-------------------4---4---4---4---------1---1---1---1---------|
A|-----------------5-------5-------------2-------2---------------|
E|---------------------5-------5-------------2-------2-----------|


        Cm             G                F
Think I like, when you dress boy-l, yor makeup coyly
e|---------------------------------------------------------------|
B|------4---4---4---4--3---3---3---3-----------------------------|
G|------5---5---5---5--4---4---4---4----2---2---2---2------------|
D|------5---5---5---5--5---5---5---5----3---3---3---3------------|
A|------3---3---3---3--5---5---5---5----3---3---3---3------------|
E|---------------------3---3---3---3----1---1---1---1------------|

   C7
e|---------------------------------------------------------------|
B|-1-1-1-1-1-1-1-1-----------------------------------------------|
G|-3-3-3-3-3-3-3-3-----------------------------------------------|
D|-2-2-2-2-2-2-2-2-----------------------------------------------|
A|-3-3-3-3-3-3-3-3-----------------------------------------------|
E|---------------------------------------------------------------|

1st Chorus:

C7      G/C7      C7 F C7  G/C7  C7  F
I never loved you Henriette
e|---------------------------------------------------------------|
B|---1---1---1-1----1---1---1-1----------------------------------|
G|---3---3---3-2----3---3---3-2----------------------------------|
D|---2---2---2-3----2---2---2-3----------------------------------|
A|-3-------3---3--3-------3---3----------------------------------|
E|-----3-------1------3-------1----------------------------------|

C7      G/C7     C7 F C7  G/C7  C7  F
I never liked my sobriquette
e|---------------------------------------------------------------|
B|---1---1---1-1----1---1---1-1----------------------------------|
G|---3---3---3-2----3---3---3-2----------------------------------|
D|---2---2---2-3----2---2---2-3----------------------------------|
A|-3-------3---3--3-------3---3----------------------------------|
E|-----3-------1------3-------1----------------------------------|

C7      G/C7      C7 F C7  G/C7  C7  F
I never read your serviette
e|---------------------------------------------------------------|
B|---1---1---1-1----1---1---1-1----------------------------------|
G|---3---3---3-2----3---3---3-2----------------------------------|
D|---2---2---2-3----2---2---2-3----------------------------------|
A|-3-------3---3--3-------3---3----------------------------------|
E|-----3-------1------3-------1----------------------------------|

C7      G/C7      C7 F C7  G/C7  C7  F
I never loved you Henriette
e|---------------------------------------------------------------|
B|---1---1---1-1----1---1---1-1----------------------------------|
G|---3---3---3-2----3---3---3-2----------------------------------|
D|---2---2---2-3----2---2---2-3----------------------------------|
A|-3-------3---3--3-------3---3----------------------------------|
E|-----3-------1------3-------1----------------------------------|

   F#m   B9    E
e|---------------------------------------------------------------|
B|-2--2--2--2--0--0--0--0----------------------------------------|
G|-2--2--2--2--1--1--1--1----------------------------------------|
D|-2--2--1--1--2--2--2--2----------------------------------------|
A|-x--x--2--2--2--2--2--2----------------------------------------|
E|-2--2--------0--0--0--0--0-0-2-2-3-3-4-4-5---------------------|

Intro again:
           D7    A/D7 D7         D7    A/D7 D7
e|---------------------------------------------------------------|
B|-----------3-3---3-3-------------3-3---3-3---------------------|
G|-----------5-5---5-5-------------5-5---5-5---------------------|
D|-------3---4-4---4-4-------------4-4---4-4---------------------|
A|-----3---5---------5---0-1-2---5---------5---------------------|
E|-5-5-----------5-------------1-------5-------------------------|

           D7    A/D7 D7         D7    A/D7 D7
e|---------------------------------------------------------------|
B|-----------3-3---3-3-------------3-3---3-3---------------------|
G|-----------5-5---5-5-------------5-5---5-5---------------------|
D|-------3---4-4---4-4-------------4-4---4-4---------------------|
A|-----3---5---------5---0-1-2---5---------5---------------------|
E|-5-5-----------5-------------1-------5-------------------------|


Bass solo:
Play through a verse and chorus progression and then vamp on D7 for 8 bars

3rd verse:

When we went our ways, you left your gourd behind
I never cared for rows and I got
and I got sort of bored besides
of your notes and your peephole eyes
and those spurious sighs

End on a double chorus


| /  slide up
| \  slide down
| h  hammer-on
| p  pull-off
| ~  vibrato
| +  harmonic
| x  Mute note
Tap to rate this tab
# A B C D E F G H I J K L M N O P Q R S T U V W X Y Z