Song name
# A B C D E F G H I J K L M N O P Q R S T U V W X Y Z

Lakyn Heperi - Kids tab

Standard tuning
Capo 6th fret
Key of b diatonic
/= slide
^= hammer on/pull off
~= let ring
X= mute/ not played
This is my first tab, this was learnt by watching him play and i had a little help from 
my brother, tabbed by Luke

Chords used:
e|--0--|--0--|--0--|--0--|--0--|--0--|
B|--1--|--0--|--1--|--0--|--3--|--0--|
G|--2--|--0--|--0--|--0--|--0--|--0--|
D|--0--|--0--|--2--|--2--|--2--|--0--|
A|--0--|--3--|--3--|--2--|--3--|--2--|
E|--x--|--x--|--x--|--x--|--x--|--x--|

Intro:

e|----------0---3---/5----7/5^0-3^0------|
B|-1----3--------------0-----------------|
G|---2----2---2---2---0------------------|
D|---------------------------------------|
A|-0----0---0---0---/3-------------------|
E|---------------------------------------|

e|-----0~--------------------------------|
B|----3~-3~-----3---0--------------------|
G|---0~---0~---0~--0~--------------------|
D|--2~-----2~-2~--0~---------------------|
A|-3~-------3~---2~----------------------|
E|---------------------------------------|

e|----------0----------------------------|
B|-1----3-------3------1-3-1-1-1^3^1-----|
G|---2----2---2---2---0--0---------------|
D|-------------------2-------------------|
A|-0----0---0---0---3--------------------|
E|---------------------------------------|

e|-----0~--------------------------------|
B|----3~-3~-----3---0--------------------|
G|---0~---0~---0~--0~--------------------|
D|--2~-----2~-2~--0~---------------------|
A|-3~-------3~---2~----------------------|
E|---------------------------------------|

e|----------0---3---/5----7/5^0-3^0------|
B|-1----3--------------0-----------------|
G|---2----2---2---2---0------------------|
D|---------------------------------------|
A|-0----0---0---0---/3-------------------|
E|---------------------------------------|

e|-----0~--------------------------------|
B|----3~-3~-----3---0--------------------|
G|---0~---0~---0~--0~--------------------|
D|--2~-----2~-2~--0~---------------------|
A|-3~-------3~---2~----------------------|
E|---------------------------------------|

e|----------0----------------------------|
B|-1----3-------3------1-3-1-1-1^3^1-----|
G|---2----2---2---2---0--0---------------|
D|-------------------2-------------------|
A|-0----0---0---0---3--------------------|
E|---------------------------------------|

e|-----0~--------------------------------|
B|----3~-3~------------------------------|
G|---0~---0~-----------------------------|
D|--2~-----2~--2/3/2^0-----0-------------|
A|-3~-------3~---------3~---3/0----------|
E|---------------------------------------|


Verse:
e|---------------------------------------|
B|-1--1--1--1--0--0--0--0----------------|
G|--2--2--2--2--0--0--0--0---------------|
D|---------------------------------------|
A|-0--0--0--0--3--3--3--3----------------|
E|---------------------------------------|

e|---------------------------------------|
B|-1--1--1--1--0--0--0--0----------------|
G|--0--0--0--0--0--0--0--0---------------|
D|---------------------------------------|
A|-3--3--3--3--2--2--2--2----------------|
E|---------------------------------------|x4


Chorus:
e|----------0---3---/5----7/5^0-3^0------|
B|-1----3--------------0-----------------|
G|---2----2---2---2---0------------------|
D|---------------------------------------|
A|-0----0---0---0---/3-------------------|
E|---------------------------------------|

e|-----0~--------------------------------|
B|----3~-3~-----3---0--------------------|
G|---0~---0~---0~--0~--------------------|
D|--2~-----2~-2~--0~---------------------|
A|-3~-------3~---2~----------------------|
E|---------------------------------------|

e|----------0----------------------------|
B|-1----3-------3------1-3-1-1-1^3^1-----|
G|---2----2---2---2---0--0---------------|
D|-------------------2-------------------|
A|-0----0---0---0---3--------------------|
E|---------------------------------------|

e|-----0~--------------------------------|
B|----3~-3~-----3---0--------------------|
G|---0~---0~---0~--0~--------------------|
D|--2~-----2~-2~--0~---------------------|
A|-3~-------3~---2~----------------------|
E|---------------------------------------|

e|----------0---3---/5----7/5^0-3^0------|
B|-1----3-------------0------------------|
G|---2----2---2---2----0-----------------|
D|---------------------------------------|
A|-0----0---0---0---/3-------------------|
E|---------------------------------------|

e|-----0~--------------------------------|
B|----3~-3~-----3---0--------------------|
G|---0~---0~---0~--0~--------------------|
D|--2~-----2~-2~--0~---------------------|
A|-3~-------3~---2~----------------------|
E|---------------------------------------|

e|----------0----------------------------|
B|-1----3-------3------1-3-1-1-1^3^1-----|
G|---2----2---2---2---0--0---------------|
D|-------------------2-------------------|
A|-0----0---0---0---3--------------------|
E|---------------------------------------|

e|-----0~--------------------------------|
B|----3~-3~-----3---0--------------------|
G|---0~---0~---0~--0~--------------------|
D|--2~-----2~-2~--0~---------------------|
A|-3~-------3~---2~----------------------|
E|---------------------------------------|

Verse:
e|---------------------------------------|
B|-1--1--1--1--0--0--0--0----------------|
G|--2--2--2--2--0--0--0--0---------------|
D|---------------------------------------|
A|-0--0--0--0--3--3--3--3----------------|
E|---------------------------------------|

e|---------------------------------------|
B|-1--1--1--1--0--0--0--0----------------|
G|--0--0--0--0--0--0--0--0---------------|
D|---------------------------------------|
A|-3--3--3--3--2--2--2--2----------------|
E|---------------------------------------|x3

e|---------------------------------------|
B|-1--1--1--1--0--0--0--0----------------|
G|--2--2--2--2--0--0--0--0---------------|
D|---------------------------------------|
A|-0--0--0--0--3--3--3--3----------------|
E|---------------------------------------|

e|---------------------------------------|
B|-1--1--1--1--0~------------------------|
G|--0--0--0--0-0~------------------------|
D|---------------------------------------|
A|-3--3--3--3--2~------------------------|
E|---------------------------------------|

Chorus:
e|----------0---3---/5----7/5^0-3^0------|
B|-1----3--------------0-----------------|
G|---2----2---2---2---0------------------|
D|---------------------------------------|
A|-0----0---0---0---/3-------------------|
E|---------------------------------------|

e|-----0~--------------------------------|
B|----3~-3~-----3---0--------------------|
G|---0~---0~---0~--0~--------------------|
D|--2~-----2~-2~--0~---------------------|
A|-3~-------3~---2~----------------------|
E|---------------------------------------|

e|----------0----------------------------|
B|-1----3-------3------1-3-1-1-1^3^1-----|
G|---2----2---2---2---0--0---------------|
D|-------------------2-------------------|
A|-0----0---0---0---3--------------------|
E|---------------------------------------|

e|-----0~--------------------------------|
B|----3~-3~-----3---0--------------------|
G|---0~---0~---0~--0~--------------------|
D|--2~-----2~-2~--0~---------------------|
A|-3~-------3~---2~----------------------|
E|---------------------------------------|

e|----------0---3---/5----7/5^0-3^0------|
B|-1----3--------------0-----------------|
G|---2----2---2---2---0------------------|
D|---------------------------------------|
A|-0----0---0---0---/3-------------------|
E|---------------------------------------|

e|-----0~--------------------------------|
B|----3~-3~-----3---0--------------------|
G|---0~---0~---0~--0~--------------------|
D|--2~-----2~-2~--0~---------------------|
A|-3~-------3~---2~----------------------|
E|---------------------------------------|

e|---------------------------------------|
B|-1~-----0~-----1~-----0~---------------|
G|-2~-----0~-----0~-----0~---------------|
D|---------------------------------------|
A|-0~-----3~-----3~-----2~---------------|
E|---------------------------------------|


Ending Chord:
e|-0~------|
B|--1~-----|
G|---2~----|
D|----0~---|
A|-----0~--|
E|------x--| (Rake upwards with finger)

*Ending is from his audition of the voice

If there are any noticeable mistakes, let me know, but this is mostly correct
Tap to rate this tab
 
# A B C D E F G H I J K L M N O P Q R S T U V W X Y Z