Song name
# A B C D E F G H I J K L M N O P Q R S T U V W X Y Z

Lalaine Vergara - Joyride tab

Help us improve GuitareTab! Take a short survey!
intro: guitar 1
eb---------------------------------->
Bb---------------------------------->
Gb-2-2-2-2-2-2-2-2-2-2-2-2-2-2-2-2-->
Db---------------------------------->
Ab--0-0-0-0-0-0-0-0-0-0-0-0-0-0-0-0->
Db---------------------------------->

intro/chorus: guitar 2
eb------------------------------------------------->
Bb------------------------------------------------->
Gb-7-7-----------------------7-7------------------->
Db-7-7----0-0----7-7---------7-7----0-0----7-7----->
Ab-5-5----0-0----7-7---------5-5----0-0----7-7----->
Db-5-5----0-0----7-7---------5-5----0-0----7-7----->
wont you come and take a ride with me Ill take you to all beautiful
places that youve never seen but you always wanted to

fill: guitar 1
/eb---------------------------------------------------------------->\
|Bb---------------------------------------------------------------->|
|Gb---------------------------------------------------------------->|
|Db-004020-0-04540-004020-0-0454020004020-0-0454h5p4h5p4h5p4h5p4h5->|
|Ab---------------------------------------------------------------->|
|Db---------------------------------------------------------------->|
|                                                                   |
|fill: guitar 2                                                     |
|eb---------------------------------------------------------------->|
|Bb---------------------------------------------------------------->|
|Gb---------------------------------------------------------------->|
|Db-\2-2--+2--2---+5-5---+5--5------2-2--+2--2---+5-5---+5~-------->|
|Ab-\2-2--+2--2---+5-5---+5--5------2-2--+2--2---+5-5---+5~-------->|
\Db-\2-2--+2--2---+5-5---+5--5------2-2--+2--2---+5-5---+5~-------->/

verse 1: guitar 1
eb------------------------------------------------------------------>
Bb------------------------------------------------------------5/8\7->
Gb-9-9-999-9999-7-777-7777/12-121212-12121212-14-141414-141414------>
Db-9-9-999-9999-7-777-7777/12-121212-12121212-14-141414-141414------>
Ab-7-7-777-7777-5-555-5555/10-101010-10101010-12-121212-121212------>
Db------------------------------------------------------------------>
       *   *      *   *        *      *           *      *
were fighting against the mainstream against everything they tell us we
should be 

verse 1: guitar 2
eb----------------------------------------------------------------->
Bb----------------------------------------------------------------->
Gb----------------------------------------------------------------->
Db-\222-222-222-222-000-000-000-000-555-555-555-555-777-777-777~--->
Ab-\222-222-222-222-000-000-000-000-555-555-555-555-777-777-777~--->
Db-\222-222-222-222-000-000-000-000-555-555-555-555-777-777-777~--->
    **  **  **  **  **  **  **  **  **  **  **  **  **  **  **
were striving to mold our lives by our dreams so our dreams can become
reality

chorus: guitar 2
eb------------------------------------------------------------------------->
Bb------------------------------------------------------------------------->
Gb-7-7-------------------7-7--------------9~--7777----------7777----------->
Db-7-7---0-0---7-7-------7-7---0-0---7-7--7~--7777000077777777770000777777->
Ab-5-5---0-0---7-7-------5-5---0-0---7-7------5555000077777755550000777777->
Db-5-5---0-0---7-7-------5-5---0-0---7-7------5555000077777755550000777777->
wont you come and take a ride with me Ill take you to all beautiful
places that youve never seen but you always wanted to and well find our
hearts on this lonely stretch of road and I will be here (go!)

---REPEAT FILL

verse 1: guitar 1
eb------------------------------------------------------------------>
Bb------------------------------------------------------------5/8\7->
Gb-9-9-999-9999-7-777-7777/12-121212-12121212-14-141414-141414------>
Db-9-9-999-9999-7-777-7777/12-121212-12121212-14-141414-141414------>
Ab-7-7-777-7777-5-555-5555/10-101010-10101010-12-121212-121212------>
Db------------------------------------------------------------------>
       *   *      *   *        *      *           *      *
were trying to win our hearts back in a world where we just dont know who
we are

verse 1: guitar 2
eb----------------------------------------------------------------->
Bb----------------------------------------------------------------->
Gb----------------------------------------------------------------->
Db-\222-222-222-222-000-000-000-000-555-555-555-555-777-777-777~--->
Ab-\222-222-222-222-000-000-000-000-555-555-555-555-777-777-777~--->
Db-\222-222-222-222-000-000-000-000-555-555-555-555-777-777-777~--->
    **  **  **  **  **  **  **  **  **  **  **  **  **  **  **
were trying to win our hearts in a world where the others are the ones who
wear the crown

---REPEAT CHORUS

fill 2: guitar 1
/eb---------------------------------->\
|Bb---------------------------------->|
|Gb---------------------------------->|
|Db-40204020402040204020402040204020->|
|Ab---------------------------------->|
|Db---------------------------------->|
|                                     |
|fill 2: guitar 2                     |
|eb---------------------------------->|
|Bb---------------------------------->|
|Gb---------------------------------->|
|Db-----------------4020402040204020->|
|Ab---------------------------------->|
\Db---------------------------------->/
                                  so

bridge: guitar 1    repeat, let this ring\/ on repeated measure
/eb------------------------------------------------>\
|Bb------------------------------------------------>|
|Gb------------------------------------------------>|
|Db----77777777744222222222---77777777744222222222->|
|Ab------------------------------------------------>|
|Db------------------------------------------------>|
|                                                   |
|bridge: guitar 2                                   |
|eb------------------------------------------------>|
|Bb------------------------------------------------>|
|Gb--------------------------------------777777777->|
|Db-2-2-----------7777777772-2-----------777777777->|
|Ab-2-2-----------7777777772-2-----------555555555->|
\Db-2-2-----------7777777772-2-----------555555555->/
follow your heart and you will find it on your own and itll all become
clear by the time we make it home and well always remember these talks
that weve had and I will be here

chorus: guitar 2
eb------------------------------------------------------------------------->
Bb------------------------------------------------------------------------->
Gb-7~----------------7~---------------------------------------------------->
Db-7~---0~---7~------7~---0~---7~-------555555500000007777777555555000007b->
Ab-5~---0~---7~------5~---0~---7~-------555555500000007777777555555000007b->
Db-5~---0~---7~------5~---0~---7~-------555555500000007777777555555000007b->
                                        ********************************
wont you come and take a ride with me Ill take you to all beautiful
places that youve never seen but you always wanted to and well find our
hearts on this lonely stretch of road and I will be

so follow your hearts and

bridge: guitar 2
eb------------------------------------------------------------------------->
Bb------------------------------------------------------------------------->
Gb---------7777------------7777------------7777-------------7~------------->
Db-77777777777700007777777777770000777777777777000077777777-7~---0~---7~--->
Ab-77777777555500007777777755550000777777775555000077777777-5~---0~---7~--->
Db-77777777555500007777777755550000777777775555000077777777-5~---0~---7~--->
you will find it on your own and itll all become clear by the time we make
it home and well always remember these talks that weve had and I will be
here and I will be here

outro: guitar 2 (r=10th fret)
eb---------------------------------------->
Bb----------------rr--rr-----999999r~----->
Gb-7~-------------99999999~--9999999~----->
Db-7~---0~---7~---77777777~--------------->
Ab-5~---0~---7~--------------------------->
Db-5~---0~---7~--------------------------->
and I will be here
Related for Joyride tab