Song name
# A B C D E F G H I J K L M N O P Q R S T U V W X Y Z

Lalo Schifrin - Mission Impossible Theme tab

Mission Impossible Theme

Repeat until desired
e|--------------------------------------------------------------|
B|--------------------------------------------------------------|
G|--------------------------------------------------------------|
D|-----------3-5------------------------------------------------|
A|-5----5----1-3--5----5----3-4---------------------------------|
E|-3-xx-3-xx------3-xx-3-xx-1-2---------------------------------|

e|--------------------------------------------------------------|
B|-8-------8------8---------------------------------------------|
G|---12------12-----12------------------------------------------|
D|-----12------11-----10---8h10---------------------------------|
A|--------------------------------------------------------------|
E|--------------------------------------------------------------|
Tap to rate this tab
# A B C D E F G H I J K L M N O P Q R S T U V W X Y Z