Song name
# A B C D E F G H I J K L M N O P Q R S T U V W X Y Z

Lamb Of God - Pariah tab

Alright, so my last tab kinda sucked.
But I have been trying to tweak it out.
I have been listening to the song carefully on my iPod,
the Killadelphia version, the original version, and watching it be played
actually on the Killadelphia DVD so Im pretty dead on this time.

Im tabbing it by the original not live.

The quality of the song is bad so this tab may LOOK wrong but listen really close and 
with it and it sounds great.

Here we go again...

Tabber: Tim Davis
Tuning: Drop D (D A D G B e)

pm = palm mute
/ or \ = slide up or down
~ = let ring
h = hammer on
b = bend
gb = gradual bend


*Intro*

Mark Morton(Lead)
e|---------------------------------------------------|
B|---------------------------------------------------|
G|---------------------------------------------------|
D|---------------------------------------------------|
A|-------------------------------------131313--------| **12's and 13's**
D|-12/13-0-13\12-0-11/12-121212-121212--------121212-|
pm       .       .       ...... ...... ...... ......
                                                       BOTH x4
Willie Adler(Not Lead)
e|---------------------------------------------------|
B|---------------------------------------------------|
G|---------------------------------------------------|
D|-0~------------------------------------------------|
A|-0~----------------------------------131313--------|
D|-0~--------------------121212-121212--------121212-|
pm                       ...... ...... ...... ......

Mark and Willie  x4
e|---------------------------------|
B|---------------------------------|     **I think the sliding is easier
G|---------------------------------|       then bending.**
D|---------------------------------|
A|-----------------000-111-000-111-|
D|-5/6-0-6\5-0-4/5-000-111-000-111-|
pm     .     .     ... ... ... ...

*Pre Verse*

Mark  x6
e|-----------------|
B|-----------------|
G|-----------------|
D|-------5-----5h6-|
A|-0-0-0-5-0-0-5h6-|
D|-0-0-0-5-0-0-5h6-|
pm . . .   . .

Mark and Willie x1
e|-------------|
B|-------------|
G|-------------|
D|-1-000-1-0-0-|
A|-1-000-1-0-0-|
D|-1-000-1-0-0-|
pm . ... . . .

*Verse*

Mark and Willie x4
e|-----------------------------|
B|-----------------------------|
G|-----------------------------|
D|-------5-----5h6-1-0-0-1-0-0-|
A|-0-0-0-5-0-0-5h6-1-0-0-1-0-0-|
D|-0-0-0-5-0-0-5h6-1-0-0-1-0-0-|
pm . . .   . .     . . . . . .

Mark and Willie x5
e|-----------------------------| |---| **5th time end on this**
B|-----------------------------| |---|
G|-----------------------------| |---|
D|-------5-----5h6-1-0---1-0-0-| |-0-|
A|-0-0-0-5-0-0-5h6-1-0---1-0-0-| |-0-|
D|-0-0-0-5-0-0-5h6-1-0---1-0-0-| |-0-|
pm . . .   . .     . .   . . .     .

KILL THE FLUX!!!

*Pre Chorus*

Mark And Willie x8
e|--------------------------------------|
B|--------------------------------------|
G|--------------------------------------|
D|--------------------------------------|
A|--------------------------------------|
D|-00000000-5b-0000-5b-0000-5b-000000-1-|
pm ........    ....    ....    ......

*Chorus*
PART 1

Willie x8
e|--------------------------------------|
B|--------------------------------------|
G|--------------------------------------|
D|---------12-----14--15----------------|
A|-0-0-0-0---16-----16--17--------------|
D|-0-0-0-0------------------------------|
pm . . . .  **Let these notes ring**

Mark x1
e|---------------------------------------------------------|
B|---------------------------------------------------------|
G|-9~-----------------------------------9~-----------------|
D|-7~--------------6~-------------------7~--------------6~-|
A|-5~--------------6~-----------0-0-0-0-5~--------------6~-|
D|-----------------6~-----------0-0-0-0-----------------6~-|
pm                              . . . .

PART 2

Willie x8
e|--------------------------------------|
B|--------------------------------------|
G|--------------------------------------|
D|---------12-----14--15----------------|
A|-0-0-0-0---16-----16--17--------------|
D|-0-0-0-0------------------------------|
pm . . . .  **Let these notes ring**

Mark x2
e|----------------------------------------------------|
B|----------------------------------------------------|
G|----------------------------------------------------|
D|-00-0-0-0-0-0--000-000-0-00-0-0-0-0-0--000-000-0-00-|
A|-00-0-0-0-0-0--000-000-0-00-0-0-0-0-0--000-000-0-00-|
D|-00-0-0-0-0-0--000-000-0-00-0-0-0-0-0--000-000-0-00-|
pm .. . . . . .  ... ... . .. . . . . .  ... ... . ..
e|----------------------------------------------|
B|----------------------------------------------|
G|----------------------------------------------|
D|-6-6-6-6-6--666-666-6-66-6-6-6-6-6--666-666-6-|
A|-6-6-6-6-6--666-666-6-66-6-6-6-6-6--666-666-6-|
D|-6-6-6-6-6--666-666-6-66-6-6-6-6-6--666-666-6-|
pm . . . . .  ... ... . .. . . . . .  ... ... .

Both end on this
e|--------------|
B|--------------|
G|--------------|
D|-0-0--0---0---|
A|-0-0--0---0---|
D|-0-0--0---0---|
pm . .  .   .

*Breakdown*

Mark and Willie    "You piece of shit!..."
e|-----------------------|
B|-----------------------| x3
G|-----------------------|
D|-0-0----0--00-0-0-0-0--|
A|-0-0----0--00-0-0-0-0--|
D|-0-0----0--00-0-0-0-0--|
pm . .    .  .. . . . .

e|------------------------|
B|------------------------|
G|------------------------|
D|-0-0------0--00-0-0-7-6-|
A|-0-0------0--00-0-0-7-6-|
D|-0-0------0--00-0-0-7-6-|
pm . .      .  .. . . . .

e|----------------------------------------------|
B|----------------------------------------------|
G|----------------------------------------------|
D|-6-6----6--66-6-6-6-6---6-6----6--66-6-6-6-0--|
A|-6-6----6--66-6-6-6-6---6-6----6--66-6-6-6-0--|
D|-6-6----6--66-6-6-6-6---6-6----6--66-6-6-6-0--|
pm . .    .  .. . . . .   . .    .  .. . . . .

e|-----------------------------------------------|
B|-----------------------------------------------|
G|-----------------------------------------------|
D|-0-0----0--00-0-0-0-0---0-0------0--00-0-0-0-0-|
A|-0-0----0--00-0-0-0-0---0-0------0--00-0-0-0-0-|
D|-0-0----0--00-0-0-0-0---0-0------0--00-0-0-0-0-|
pm . .    .  .. . . . .   . .      .  .. . . . .

*Solo*

Mark
e|--------------------------------------------------------------|
B|--------------------------------------------------------------|
G|--------------------------------------------------------------|
D|--------------------------------------------------------------|
A|-4--5--7--8--10---4--5--7--8--10---4--5--7--8--10---4--5--7gb-|
D|--------------------------------------------------------------|
                  ***ALL pinch harmonics***

Willie (solo backing)
e|-------------------------------------------------|
B|-------------------------------------------------|
G|-------------------------------------------------|
D|-0-0-----0--00-0-0-0-0-----0-0-----0--00-0-0-7-6-|
A|-0-0-----0--00-0-0-0-0-----0-0-----0--00-0-0-7-6-|
D|-0-0-----0--00-0-0-0-0-----0-0-----0--00-0-0-7-6-|
pm . .     .  .. . . . .     . .     .  .. . . . .
e|----------------------------|
B|----------------------------|
G|----------------------------|
D|-6-6----6--66-6-6-6-6---6-6-|
A|-6-6----6--66-6-6-6-6---6-6-|
D|-6-6----6--66-6-6-6-6---6-6-|
pm . .    .  .. . . . .   . .

*Pre Chorus*

Mark And Willie x8
e|--------------------------------------|
B|--------------------------------------|
G|--------------------------------------|
D|--------------------------------------|
A|--------------------------------------|
D|-00000000-5b-0000-5b-0000-5b-000000-1-|
pm ........    ....    ....    ......

*Chorus*

Willie x16
e|--------------------------------------|
B|--------------------------------------|
G|--------------------------------------|
D|---------12-----14--15----------------|
A|-0-0-0-0---16-----16--17--------------|
D|-0-0-0-0------------------------------|
pm . . . .  **Let these notes ring**

Mark x2
e|---------------------------------------------------------|
B|---------------------------------------------------------|
G|-9~-----------------------------------9~-----------------|
D|-7~--------------6~-------------------7~--------------6~-|
A|-5~--------------6~-----------0-0-0-0-5~--------------6~-|
D|-----------------6~-----------0-0-0-0-----------------6~-|
pm                              . . . .

Both end on this
e|--------------|
B|--------------|
G|--------------|
D|-0-0--0---0---|
A|-0-0--0---0---|
D|-0-0--0---0---|
pm . .  .   .


     -The End
Tap to rate this tab
# A B C D E F G H I J K L M N O P Q R S T U V W X Y Z