Song name
# A B C D E F G H I J K L M N O P Q R S T U V W X Y Z

Lamb Of God - Hourglass tab

Hourglass
Lamb of God
By: Ethan
Zerordye@comcast.net for any questions

Tuning: Drop D

e -------------------------------------------------------------------------|
B -------------------------------------------------------------------------|
G o----------------------------------------------------------10-9s14-13----|
D o------------------------------------------------------------------------|
A ---------7-8-----8-10---------------------7-8-----8-12-------------------|
D -000-000-----000------000-3-7-6-2-000-000-----000------000---------------|

e -------------------------------------------------------------------------|
B -------------------------------------------------------------------------|
G ------------------------------------------------------------------------o|
D ------------------------------------------------------------------------o|
A ---------7-8-----8-10----------------------------------------------------|
D -000-000-----000------000-3-7-6-2-000-000-13-12-000-12-11-000-00-16s17s16|

  0:20
e -------|------------------------------------|
B -------|------------------------------------|
G -------|------------------------------------|
D -------|-----------------4h5p4-------8-7-6--|
A -------|-------6-5--------------------------|
D -0-0-0-|-0-0-0-----0-0-0-------0-0-0--------|

e ----------------------------------------------------------------|
B ----------------------------------------------------------------|
G ----------------------------------------------------------------|
D ----------------------------------------------------------------|
A -------6-5-----5-4-----------------6-5--------------------------|
D -0-0-0-----0-0-----0-0-0-0-0-0-0-0-----0-0-0-4h5p4-0-0-0-8-5-4--|

e ----------------------------------------------------------------|
B ----------------------------------------------------------------|
G ----------------------------------------------------------------|
D ---------------------------------------------4h5p4-------8-7-6--|
A -------6-5-----5-4-----------------6-5--------------------------|
D -0-0-0-----0-0-----0-0-0-0-0-0-0-0-----0-0-0-------0-0-0--------|

e ----------------------------------------------------------------|
B ----------------------------------------------------------------|
G ----------------------------------------------------------------|
D ----------------------------------------------------------------|
A -------6-5-----5-4-----------------6-5--------------------------|
D -0-0-0-----0-0-----0-0-0-0-0-0-0-0-----0-0-0-4h5p4-0-0-0-8-5-4--|

  0:42
e -----------------------------------------------------------|
B -----------------------------------------------------------|
G o----------------------------------------------------------|
D o----------------------------------------------------------|
A -------------13-10-12-----13-10-12-----15-13-----13-10-12--|
D -0-0-0-0-000----------000----------000-------000-----------|

e --------------------------|
B --------------------------|
G --------------------------|
D --------------------------|
A -------12-10-8------------|
D -000-8---------7h8p7-5-4--|

e -----------------------------------------------------------|
B -----------------------------------------------------------|
G -----------------------------------------------------------|
D -----------------------------------------------------------|
A -------------13-10-12-----13-10-12-----15-13-----13-10-12--|
D -0-0-0-0-000----------000----------000-------000-----------|

e -----------------------------|
B -----------------------------|
G ----------------------------o|
D ----------------------------o|
A --------13-12-10-9h10p9-6-5--|
D -000-12----------------------|

  1:03
e ------------------------------------------------|
B ------------------------------------------------|
G o-----------------------------------------------|
D o-8-5-7---8-5-7-----------8-5-7--10-10--8-8--7--|
A --6-3-5---6-3-5-----------6-3-5---8--8--6-6--5--|
D --------0-------0-0-0-0-0-----------------------|


e ----------------------------------------------|
B ----------------------------------------------|
G o---------------------------------3-3-1-1-0--o|
D o-8-5-7---8-5-7-----------8-5-7---3-3-1-1-0--o|
A --6-3-5---6-3-5-----------6-3-5---3-3-1-1-0---|
D --------0-------0-0-0-0-0---------------------|

  1:24
e ---------------------------------------|
B ---------------------------------------|
G o--------------------------------------|
D o--------------------------------------|
A -------12-----------------12-----------|
D -12-13----0-0-0-0-0-12-13----0-0-0-0-0-|


e ----------------------------------------|
B ----------------------------------------|
G ---------------------------------------o|
D ---------------------------------------o|
A ----------------------------------------|
D -12-13-10-0-0-0-0-0-12-13-11-0-0-0-0-0--|
  
  1:34
e --------------|
B --------------|
G --------------|
D --------------|
A --------------|
D -6-5-4-5-4-3--|

  1:35
e ---------------------------------------|
B ---------------------------------------|
G o--------------------------------------|
D o--------------------------------------|
A -------12-----------------12-----------|
D -12-13----0-0-0-0-0-12-13----0-0-0-0-0-|


e ----------------------------------------|
B ----------------------------------------|
G ---------------------------------------o|
D ---------------------------------------o|
A ----------------------------------------|
D -12-13-10-0-0-0-0-0-12-13-11-0-0-0-0-0--|

  1:46
e ---------------------------------------|
B ---------------------------------------|
G o--------------------------------------|
D o--------------------------------------|
A -------12-----------------12-----------|
D -12-13----0-0-0-0-0-12-13----0-0-0-0-0-|


e ----------------------------------------|
B ----------------------------------------|
G ---------------------------------------o|
D ---------------------------------------o|
A ----------------------------------------|
D -12-13-10-0-0-0-0-0-12-13-11-0-0-0-0-0--|

  1:56
e --------------|
B --------------|
G --------------|
D --------------|
A --------------|
D -6-5-4-5-4-3--|

  1:57
e ---------------------------------------|
B ---------------------------------------|
G o--------------------------------------|
D o--------------------------------------|
A -------12-----------------12-----------|
D -12-13----0-0-0-0-0-12-13----0-0-0-0-0-|


e ----------------------------------------|
B ----------------------------------------|
G ---------------------------------------o|
D ---------------------------------------o|
A ----------------------------------------|
D -12-13-10-0-0-0-0-0-12-13-11-0-0-0-0-0--|

  2:07
e --------------------------|
B --------------------------|
G --------------------------|
D --------------------------|
A -------------6-5-4-8-7-6--|
D -6-5-4-5-4-3--------------|

  2:09
e -------------------------------------------------------------------------|
B -------------------------------------------------------------------------|
G o------------------------------------------------------------------------|
D o--------------------------11--------------------------------------------|
A ----------13---------12-13----13-12-----------13----------------13-12-11-|
D -12-13-12----13-12-0-----------------12-13-12----13-12-11-12-10----------|

e --------------------------------------------------------------------|
B --------------------------------------------------------------------|
G -------------------------------------------------------------------o|X4
D ---------------------------11--------------------------------------o|
A ----------13---------12-13----13-12-----------13--------------------|
D -12-13-12----13-12-0-----------------12-13-12----13-12-5-9-5-8-7-3--|

  2:33
e -----------------------------------------------------------------------|
B -----------------------------------------------------------------------|
G o---------------------------------------------------------------------o|x4
D o-0--------------1--------------3-------------------------------------o|
A --0--------------1--------------3-------------6-5-4-8-7-6--------------|
D --0-5-9-5-8-7-3--1-5-9-5-8-7-3--3-5-9-5-8-7-3-------------6-5-4-5-4-3--|

  2:58
e --------------------------|
B --------------------------|
G o------------------------o|x4
D o------------------------o|
A -0-0-0-0-0-0-0-0-0-0-0-0--|
D -0-0-0-0-0-0-0-0-0-0-0-0--|

  3:10
e -------------------------------------------------------------------------|
B -------------------------------------------------------------------------|
G o------------------------------------------------------------------------|
D o--------------------------11--------------------------------------------|
A ----------13---------12-13----13-12-----------13----------------13-12-11-|
D -12-13-12----13-12-0-----------------12-13-12----13-12-11-12-10----------|

e --------------------------------------------------------------------|
B --------------------------------------------------------------------|
G -------------------------------------------------------------------o|X4
D ---------------------------11--------------------------------------o|
A ----------13---------12-13----13-12-----------13--------------------|
D -12-13-12----13-12-0-----------------12-13-12----13-12-5-9-5-8-7-3--|

  3:35
e -------------------------------------------------------------------------|
B -------------------------------------------------------------------------|
G o------------------------------------------------------------------------|
D o---------------------------11-------------------------------------------|
A ----------13-------11-12-13----13-12-----------13----------------13-12-11|
D -12-13-12----13-12--------------------12-13-12----13-12-11-12-10---------|

e ----------------------------------------------------------------------|
B ----------------------------------------------------------------------|
G o--------------------------------------------------------------------o|X2
D o---------------------------11---------------------------------------o|
A ----------13-------11-12-13----13-12-----------13---------------------|
D -12-13-12----13-12--------------------12-13-12----13-12- 5-9-5-8-7-3--|

  3:48
e ------|
B ------|
G ------|
D -0----|
A -0----|
D -0----|


Symbols:
s= Slide
h= Hammer
p= Pull
o
  =repeat
o
X2= repeat twice
X4= repeat four times

Tap to rate this tab
 
# A B C D E F G H I J K L M N O P Q R S T U V W X Y Z