Song name
# A B C D E F G H I J K L M N O P Q R S T U V W X Y Z

Lamb Of God - Bloodletting tab

          bloodletting   max silva



E|----------------------------------------------------|| (X's 2)
B|----------------------------------------------------||
G|----------------------------------------------------||
D|----------------------------------------------------||
A|----------------------------------------------------||
D|555555555555444444444444333333333333333333333333----||



E|---------------------------------||
B|---------------------------------||
G|---------------------------------||
D|---------------------------------||(? X's)
A|1-----3----------------------1---||
D|1-0-0-3-0-1-3-5h6p5-3-0-1-0-1----||
    . .   . . .       . . . . .


E|-------------------------------||
B|-------------------------------||
G|-------------------------------||
D|-------------------------------||
A|1-----3---4---3----------------||(? X's)
D|1-0-0-3-0-4-0-3-4-3-1-3-1-0-1--||
    . .   .   . 

 thats all i got
Tap to rate this tab
# A B C D E F G H I J K L M N O P Q R S T U V W X Y Z