Song name
# A B C D E F G H I J K L M N O P Q R S T U V W X Y Z

Lamb Of God - Suffering Bastard tab

Help us improve GuitareTab! Take a short survey!
Riff 1
----------------------------------------------------------------------------|
----------------------------------------------------------------------------|
----------------------------------------------------------------------------|
-----------------3----------------------------------------------------------|
5-3-0-2--0-3-0-2-3--0-5-3-0-2--0-5-3-2-1-0----------------------------------|
5-3-0-2--0-3-0-2----0-5-3-0-2--0-5-3-2-1-0----------------------------------|


Riff 2
----------------------------------------------------------------------------|
----------------------------------------------------------------------------|
----------------------------------------------------------------------------|
----------------------------------------------------------------------------|
0~--1~----------------------------------------------------------------------|
0~--1~--12-13-14-15-14-13-12-(x4)-------------------------------------------|
         '  '  '  '  '  '  '  '

Riff 3
--------|-------------------------------------------------------------------|
--------|-------------------------------------------------------------------|
--------|-------------------------------------------------------------------|
--------|-------------------------------------------------------------------|
0~--1~--|-------------------------------------------------------------------|
0~--1~--|10-11-12-13-12-13-11-10-(x4)-12-13-14-15-14-13-12-(x4)-------------|
          '  '  '  '  '  '  '  '      '  '  '  '  '  '  '


Riff 4
----------------------------------------------------------------------------|
----------------------------------------------------------------------------|
----------------------------------------------------------------------------|
----------------------------------------------------------------------------|
7-1-10-5--------------------------------------------------------------------|
7-1-10-5-12-13-14-15-14-13-12-(x4)------------------------------------------|
          '  '  '  '  '  '  '

Bridge(timing is a bit strange here but this is the basic chug pattern)
----------------------------------------------------------------------------|
----------------------------------------------------------------------------|
----------------------------------------------------------------------------|
----------------------------------------------------------------------------|
0-00-0-00-0-00--------------------------------------------------------------|
0-00-0-00-0-00--------------------------------------------------------------|
" "" " "" " ""

Riff 5
----------------------------------------------------------------------------|
----------------------------------------------------------------------------|
----------------------------------------------------------------------------|
-----------------3----------------------------------------------------------|
5-3-0-2--0-3-0-2-3---3-2-0-33-0-2-------------------------------------------|
5-3-0-2--0-3-0-2-----3-2-0-33-0-2-------------------------------------------|

Note-repititions of certain parts in riffs 2,3,and 4 were put in parentheses for the
of saving space and time.

Riff 1 x7
Riff 2 x3
Riff 3 x2
Riff 4 x3
Bridge ?
Riff 1 x7
Riff 5 x1
Related for Suffering Bastard tab