Song name
# A B C D E F G H I J K L M N O P Q R S T U V W X Y Z

Lamb Of God - Descending tab

-------------------------------------------------------------------------------
			    Descending - Lamb of god
-------------------------------------------------------------------------------
Tabbed by: Lordofmetal
Email: inewland53@hotmail.com



Tuning: Drop D - DADBGE


I didn't like the way others tabbed this song, so I attempted my own version.
It sounds a little more accurate to 

me, but let me know what you think. I left a few (??) on 2 riffs because I
just couldn't figure them out so check 

other tabs.....sorry :(

  ROCK ON          





Guitar 1

(fade in intro)

e|-----------------------------------------------------------------------------------------| 
B|-----------------------------------------------------------------------------------------| x2 
G|-----------------------------------------------------------------------------------------|
D|-8-0-0-0-0-7-8-0-0-0-0-7-8-0-0-0-0-7-8-0-0-0-0-8-7-0-0-0-0-7-0-0-0-0-7-0-0-0-0-7-0-0-0-0-| 
A|-----------------------------------------------------------------------------------------|
D|-----------------------------------------------------------------------------------------|

e|-----------------------------------------------------------------------------------------| 
B|-----------------------------------------------------------------------------------------| x2 
G|-----------------------------------------------------------------------------------------|
D|-8-0-0-0-0-7-8-0-0-0-0-7-8-0-0-0-0-7-8-0-0-0-0-8-7-0-0-0-0-7-0-0-0-0-7-0-0-0-0-7-0-0-0-0-| 
A|-----------------------------------------------------------------------------------------|
D|-----------------------------------------------------------------------------------------|

e|---------------------------------------------------------------------------|
B|---------------------------------------------------------------------------|
G|---------------------------------------------------------------------------|   
D|-8-7-5-3------------------------------------------8-7-5-3------------------|
A|-8-7-5-3------------------------------------------8-7-5-3------------------|
D|-8-7-5-3-0-0-0-3-5-0-0-0-3-1-0-0-0-3-5-0-0-3-5-1--8-7-5-3------------------|

e|-----------------------------------------------------------------------------------------| 
B|-----------------------------------------------------------------------------------------| x4 (palm mute)
G|-----------------------------------------------------------------------------------------|
D|-8-0-0-0-0-7-8-0-0-0-0-7-8-0-0-0-0-7-8-0-0-0-0-8-7-0-0-0-0-7-0-0-0-0-7-0-0-0-0-7-0-0-0-0-| 
A|-----------------------------------------------------------------------------------------|
D|-----------------------------------------------------------------------------------------|


   Guitar 2

e|---------------------------------------------------------------------------
B|---------------------------------------------------------------------------
G|---------------------------------------------------------------------------
D|-12-12-12-12-12-12-14-14-14-14-14-14-15-15-15-15-15-15-17-17-17-17-15-14---
A|---------------------------------------------------------------------------
D|---------------------------------------------------------------------------

  ---------------------------------------------------------------------------|
  ---------------------------------------------------------------------------|
  ---------------------------------------------------------------------------|   x2
  -12-12-12-12-12-12-12-12-12-12-12-12-12-12-12-12-12-12-12-12-12-12-12-12---|       

---------------------------------------------------------------------------|
  ---------------------------------------------------------------------------|




e|---------------------------------------------------------------------------|
B|---------------------------------------------------------------------------|
G|---------------------------------------------------------------------------|   
D|-8-7-5-3------------------------------------------8-7-5-3------------------|
A|-8-7-5-3------------------------------------------8-7-5-3------------------|
D|-8-7-5-3-0-0-0-3-5-0-0-0-3-1-0-0-0-3-5-0-0-3-5-1--8-7-5-3------------------|

e|-----------------------------------------------------------------------------------------| 
B|-----------------------------------------------------------------------------------------| x2 
G|-----------------------------------------------------------------------------------------|
D|-8-0-0-0-0-7-8-0-0-0-0-7-8-0-0-0-0-7-8-0-0-0-0-8-7-0-0-0-0-7-0-0-0-0-7-0-0-0-0-7-0-0-0-0-| 
A|-----------------------------------------------------------------------------------------|
D|-----------------------------------------------------------------------------------------|

e|-----------------------------------------------------------------------------------------| 
B|-----------------------------------------------------------------------------------------| x4 (palm mute)
G|-----------------------------------------------------------------------------------------|
D|-8-0-0-0-0-7-8-0-0-0-0-7-8-0-0-0-0-7-8-0-0-0-0-8-7-0-0-0-0-7-0-0-0-0-7-0-0-0-0-7-0-0-0-0-| 
A|-----------------------------------------------------------------------------------------|
D|-----------------------------------------------------------------------------------------|

  Guitar 2

e|---------------------------------------------------------------------------
B|---------------------------------------------------------------------------
G|---------------------------------------------------------------------------
D|-12-12-12-12-12-12-14-14-14-14-14-14-15-15-15-15-15-15-17-17-17-17-15-14---
A|---------------------------------------------------------------------------
D|---------------------------------------------------------------------------

  ---------------------------------------------------------------------------|
  ---------------------------------------------------------------------------|
  ---------------------------------------------------------------------------|   x2
  -12-12-12-12-12-12-12-12-12-12-12-12-12-12-12-12-12-12-12-12-12-12-12-12---|         

---------------------------------------------------------------------------|
  ---------------------------------------------------------------------------|





e|---------------------------------------------------------------------------|
B|---------------------------------------------------------------------------|
G|---------------------------------------------------------------------------|   
D|-8-7-5-3------------------------------------------8-7-5-3------------------|
A|-8-7-5-3------------------------------------------8-7-5-3------------------|
D|-8-7-5-3-0-0-0-3-5-0-0-0-3-1-0-0-0-3-5-0-0-3-5-1--8-7-5-3------------------|

e|---------------------------------------------------------------------------|
B|---------------------------------------------------------------------------|
G|---------------------------------------------------------------------------|  x2  ??
D|---------------------------------------------------------------------------|
A|---------------------------------------------------------------------------|
D|-7--7-8-7--7-8-10-7h8p7-5-7-5-3-5-3-5-7-8----------------------------------|

e|---------------------------------------------------------------------------|
B|---------------------------------------------------------------------------|
G|---------------------------------------------------------------------------|  ??
D|---------------------------------------------------------------------------|
A|---------------------------------------------------------------------------|
E|---------------------------------------------------------------------------|

e|---------------------------------------------------------------------------|
B|---------------------------------------------------------------------------|
G|---------------------------------------------------------------------------|   
D|-8-7-5-3------------------------------------------8-7-5-3------------------|
A|-8-7-5-3------------------------------------------8-7-5-3------------------|
D|-8-7-5-3-0-0-0-3-5-0-0-0-3-1-0-0-0-3-5-0-0-3-5-1--8-7-5-3------------------|

e|---------------------------------------------------------------------------|
B|---------------------------------------------------------------------------|
G|---------------------------------------------------------------------------|
D|---------------------------------------------------------------------------|
A|---------------------------------------------------------------------------|
D|-888888-777777-555555-333333-----------------------------------------------|
 
(Pause)
Base Plays Riff

e|-----------------------------------------------------------------------------------------| 
B|-----------------------------------------------------------------------------------------| x4 
G|-----------------------------------------------------------------------------------------|
D|-7-0-0-0-0-8-7-0-0-0-0-8-7-0-0-0-0-8-7-0-0-0-0-7-8-0-0-0-7-8-0-0-0-7-8-0-0-0-7-8-0-0-0-0-| 
A|-----------------------------------------------------------------------------------------|
D|-----------------------------------------------------------------------------------------|




| /  slide up
| \  slide down
| h  hammer-on
| p  pull-off
| ~  vibrato
| +  harmonic
| x  Mute note
===============================================================================
Tap to rate this tab
# A B C D E F G H I J K L M N O P Q R S T U V W X Y Z