Guitaretab - guitar tabs
Song name
# A B C D E F G H I J K L M N O P Q R S T U V W X Y Z

Lamb Of God - Pathetic tab

 GUITAR SOLO (Ryhtym is CHORUS riff x2 for the 1st half of solo) 
e|----------------------------------------------------------| 
b|-15bf-15bh~~~~~--15br-p12----12---------------------------| 
g|--------------------------15----15-14-12-15gb-r-p12-------| 
d|----------------------------------------------------------| 
a|----------------------------------------------------14-13-| 
d|----------------------------------------------------------| 


e|------------------------------------------------------| 
b|------------------------------------------------------| 
g|------------------------------------------------------| 
d|------------------------------------------------5-----| 
a|--14-15-14-12-14-12-10-12-10-9-10-9-7-9-7-5-7-----7~~-| 
d|------------------------------------------------------| 
                                                 [...] 

(w/ Wah) 
e|15p12----12h15p12-15p12----12h15p12-|-15p12----12h15p12-15p12---12h15p12| 
b|------15----------------15----------|-------15----------------15--------| 
g|------------------------------------|-----------------------------------| 
d|------------------------------------|-----------------------------------| 
a|------------------------------------|-----------------------------------| 
d|------------------------------------|-----------------------------------| 

e|17p12----12h17p12-17p12----12h17p12-|-17p12----12h17p12-17p12---12h15h17| 
b|------15----------------15----------|-------15----------------15--------| 
g|------------------------------------|-----------------------------------| 
d|------------------------------------|-----------------------------------| 
a|------------------------------------|-----------------------------------| 
d|------------------------------------|-----------------------------------| 


e|-17p15p12-15p12----12---------------------------------------------------| 
b|----------------15----15p12-15p12----12---------------------------------| 
g|----------------------------------14----14p12-14p12----12---------------| 
d|----------------------------------------------------14----14p12-14p12---| 
a|----------------------------------------------------------------------14| 
d|------------------------------------------------------------------------| 
[ Tab from: http://www.guitaretab.com/l/lamb-of-god/147369.html ]
e|---------------------------------------|
b|---------------------------------------|
g|---------------------------------------|
d|-12------------------------5-----------|
a|----14p12-14p12\10h12p10\7---7p5-6*~~~-|
d|---------------------------------------|

 RYTHYM (for second half of solo)                                  
e|-----------------------------------------------------------------|
b|-----------------------------------------------------------------|
g|-----------------------------------------------------------------|
d|-----------------------------------------------------------------|
a|-0-0-0-0-0-0-0-0-1-1-1-1-1-1-1-1-0-0-0-0-0-0-0-0-3-3-3-3-3-3-3-3-| 
d|-0-0-0-0-0-0-0-0-3-3-3-3-3-3-3-3-2-2-2-2-2-2-2-2-1-1-1-1-1-1-1-1-|
   ...............................................................   

  
  /----ending-----\ 
e|-----------------|
b|-----------------|
g|-----------------|
d|-----------------|
a|-----------------|
e|-0-1-0-5-0-1-0-5-| 
   ...............


e|--------------------------------------------------| 
b|--------------------------------------------------| 
g|-----------------12b-r-10----10------------10b~~~-| 
d|--------------------------12----12-10-------------| 
a|--------------------------------------12-x--------| 
d|--------------------------------------------------| 


e|------------------------------------------------------------------------| 
b|------------------------------------------------------------------------| 
g|-10\9-9-9-7-7-7-5-5/7-7/9-9/10-10\9-9/10-10/12-12/10-10/12-12-----------| 
d|------------------------------------------------------------------------| 
a|------------------------------------------------------------------------| 
d|------------------------------------------------------------------------| 

e|-17-------20gbf-20b-20b-20b-20br-b-20br-17----17---------------| 
b|----20-17----------------------------------20----20-17-18-17~~-| 
g|---------------------------------------------------------------| 
d|---------------------------------------------------------------| 
a|---------------------------------------------------------------| 
d|---------------------------------------------------------------| 

    Legend

bf-bend full
bh-bend half
gb-gradual bend
r-release
p-pull off
br-bend release
h-hammer on
~-vabrato
.-pm
*-harmonic
/-slide
Related for Pathetic tab