Guitaretab - guitar tabs
Song name
# A B C D E F G H I J K L M N O P Q R S T U V W X Y Z

Lamb Of God - Magic tab

This tab was created by liesofautumn.  All credit goes to him, this was submitted 
this song is also known as Letter to the Unborn, as well as Magic.


Intro Riff A
-------------------------------------------------------------|
-------------------------------------------------------------|
-------------------------------------------------------------|
-------------------------------------------------------------|
-------------------------------------------------------------|
-8-00-8-00-8-00-8-00----3-5-6-3-3-5-3-5-6-3-3-5--------------|
                        * * * * * * * * * * * *

-------------------------------------------------------------|
-------------------------------------------------------------|
-2~--4~--5~--4~----2~--4~--5~--6~----------------------------|
-0~--2~--3~--2~----0~--2~--3~--4~----------------------------|
-0~--2~--3~--2~----0~--2~--3~--4~----------------------------|
-0~--2~--3~--2~----0~--2~--3~--4~----------------------------|


Verse Riff B
--------------------------------------------------------------|
--------------------------------------------------------------|
--------------------------------------------------------------|
--------------------------------------------------------------|
--------------------------------------------------------------|
10-13-12-10-13-12-10-13-12-10-13-12-10-13-12-10-0000000000000-|

Riff C
-------------------------------------------------------------|
-------------------------------------------------------------|
-------------------------------------------------------------|
-------------------------------------------------------------|
1p0-1p0-4p0-1p0--1p0-----------------------------------------|
1p0-1p0-4p0-1p0-01p0--4-8-6vb--------------------------------|
[ Tab from: http://www.guitaretab.com/l/lamb-of-god/169760.html ]
Riff D
-------------------------------------------------------------|
-------------------------------------------------------------|
-------------------------------------------------------------|
-------------------------------------------------------------|
-------------------------------------------------------------|
-22222266666222222-111111555555111111------------------------|

Riff E(same as Riff D just palm muted in respective power chords of

notes in Riff D)

Riff F(solo rythm)
-------------------------------------------------------------|
-------------------------------------------------------------|
7-7--7-7-----------------------------------------------------|
6-6--6-6-----------------------------------------------------|
5-5--5-5-----------------------------------------------------|
-0-00-0-0-000-000-000----------------------------------------|
 * ** * * *** *** ***


Riff G
---------------------------------------------------------------|
---------------------------------------------------------------|
---------------------------------------------------------------|
1-0-1-0-0-4-0-1-0-0-0-0----------------------------------------|
1-0-1-0-0-4-0-1-0-0-0-0----------------------------------------|
1-0-1-0-0-4-0-1-0-0-0-0--4-8-6vb-------------------------------|
  *   * *   *   * * * *

Riff H
-------------------------------------------------------------|
-------------------------------------------------------------|
-------------------------------------------------------------|
11111-4-0-1-0-0000000----------------------------------------|
11111-4-0-1-0-0000000----------------------------------------|
11111-4-0-1-0-0000000----------------------------------------|
*****   *   * *******

Ending
-------------------------------------------------------------|
-------------------------------------------------------------|
-------------------------------------------------------------|
1~lr----------------------0----------------------------------|
1~lr----------------------0----------------------------------|
1~lr----------------------0----------------------------------|
Related for Magic tab
×
Magic