Song name
# A B C D E F G H I J K L M N O P Q R S T U V W X Y Z

Lamb Of God - Dead Seeds tab

-------------------------------------------------------------------------------
			     Dead Seeds - Lamb of God
-------------------------------------------------------------------------------
Tabbed by: TTElectro
Email: abdullaj82@gmail.com

Tuning: Drop D

e|-------------------------------------------------------|
B|-------------------------------------------------------|
G|-------------------------------------------------------|
D|-------------------------------------------------------|
A|-/6~-6~-6~-0-------------/6~-6~------------------------|
D|-----------0---0-0-0-0----------1-0-1-3-4p3-1-3--------| x4

e|---------------------------------------------------------------------------|
B|---------------------7---7-----------8---8---------------------------------|
G|-----------------------7---------------8-----------------------------------|
D|--------------------------------------------------------------4-5-4--------|
A|------------------------------------------------------6-5-3-6-------6-5----|
D|--0-0-0-0-0-0-0-0-----------0-0-0-0----------0-0-0-0-----------------------|

e|---------------------------------------------------------------------------|
B|---------------------7---7-----------8---8---------------------------------|
G|-----------------------7---------------8-----------------------------------|
D|---------------------------------------------------------------------------|
A|------------------------------------------------------0-1-1-1-1-1-1-1------|
D|--0-0-0-0-0-0-0-0-----------0-0-0-0----------0-0-0-0--0-1-1-1-1-1-1-1------|

e|---------------------------------------------------------------------------|
B|---------------------7---7-----------8---8---------------------------------|
G|-----------------------7---------------8-----------------------------------|
D|--------------------------------------------------------------4-5-4--------|
A|---0-0-0-0-0-0-0-0------------------------------------6-5-3-6-------6-5----|
D|---0-0-0-0-0-0-0-0-----------0-0-0-0---------0-0-0-0-----------------------|

e|---------------------------------------------------------------------------|
B|---------------------7---7-----------8---8---------------------------------|
G|-----------------------7---------------8-----------------------------------|
D|---------------------------------------------------------------------------|
A|------------------------------------------------------0-1-1-1-1-1-1-1------|
D|--0-0-0-0-0-0-0-0-----------0-0-0-0----------0-0-0-0--0-1-1-1-1-1-1-1------|


*** Next part repeats twice
e|---------------------------------------------------------------------------|
B|---------------------------------------------------------------------------|
G|---------------------------------------------------------------------------|
D|--7\5/7-----------7\5/7------------8\7/8--------------------4-5-4----------|
A|--5\3/5-----------5\3/5------------6\5/6------------6-5-3-6-------6--------|
D|---------0-0-0-0----------0-0-0-0---------0-0-0-0--------------------------|

e|---------------------------------------------------------------------------|
B|---------------------------------------------------------------------------|
G|---------------------------------------------------------------------------|
D|--7\5/7-----------7\5/7------------8\7/8-----------------------------------|
A|--5\3/5-----------5\3/5------------6\5/6--------------0-1-1-1-1-1-1-1------|
D|---------0-0-0-0----------0-0-0-0---------0-0-0-0-----0-1-1-1-1-1-1-1------|
*** Repeat ends here

e|----------------------------------------------------|
B|----------------------------------------------------|
G|----------------------------------------------------|
D|----------------------------------------------------|
A|----------------------------------------------------|
D|-0-2-2-3-2-2-0-2-2-3-2-2-5-3-3-0-2-2-3-2-2-0-2-2----|

e|----------------------------------------------------|
B|----------------------------------------------------|
G|----------------------------------------------------|
D|----------------------------------------------------|
A|-/6~-6~-6~-0-------------/6~-6~---------------------|
D|-----------0---0-0-0-0----------1-0-1-3-4p3-1-3-----| x4

e|---------------------------------------------------------------------------|
B|---------------------7---7-----------8---8---------------------------------|
G|-----------------------7---------------8-----------------------------------|
D|--------------------------------------------------------------4-5-4--------|
A|------------------------------------------------------6-5-3-6-------6-5----|
D|--0-0-0-0-0-0-0-0-----------0-0-0-0----------0-0-0-0-----------------------|

e|---------------------------------------------------------------------------|
B|---------------------7---7-----------8---8---------------------------------|
G|-----------------------7---------------8-----------------------------------|
D|---------------------------------------------------------------------------|
A|------------------------------------------------------0-1-1-1-1-1-1-1------|
D|--0-0-0-0-0-0-0-0-----------0-0-0-0----------0-0-0-0--0-1-1-1-1-1-1-1------|

e|---------------------------------------------------------------------------|
B|---------------------7---7-----------8---8---------------------------------|
G|-----------------------7---------------8-----------------------------------|
D|--------------------------------------------------------------4-5-4--------|
A|---0-0-0-0-0-0-0-0------------------------------------6-5-3-6-------6-5----|
D|---0-0-0-0-0-0-0-0-----------0-0-0-0---------0-0-0-0-----------------------|

e|---------------------------------------------------------------------------|
B|---------------------7---7-----------8---8---------------------------------|
G|-----------------------7---------------8-----------------------------------|
D|---------------------------------------------------------------------------|
A|------------------------------------------------------0-1-1-1-1-1-1-1------|
D|--0-0-0-0-0-0-0-0-----------0-0-0-0----------0-0-0-0--0-1-1-1-1-1-1-1------|


***Next Part repeats twice
e|---------------------------------------------------------------------------|
B|---------------------------------------------------------------------------|
G|---------------------------------------------------------------------------|
D|--7\5/7-----------7\5/7------------8\7/8--------------------4-5-4----------|
A|--5\3/5-----------5\3/5------------6\5/6------------6-5-3-6-------6--------|
D|---------0-0-0-0----------0-0-0-0---------0-0-0-0--------------------------|

e|---------------------------------------------------------------------------|
B|---------------------------------------------------------------------------|
G|---------------------------------------------------------------------------|
D|--7\5/7-----------7\5/7------------8\7/8-----------------------------------|
A|--5\3/5-----------5\3/5------------6\5/6--------------0-1-1-1-1-1-1-1------|
D|---------0-0-0-0----------0-0-0-0---------0-0-0-0-----0-1-1-1-1-1-1-1------|
***Repeat ends here


e|----------------------------------------------------|
B|----------------------------------------------------|
G|----------------------------------------------------|
D|----------------------------------------------------|
A|----------------------------------------------------|
D|-0-2-2-3-2-2-0-2-2-3-2-2-5-3-3-0-2-2-3-2-2-0-2-2----|

e|----------------------------------------------------|
B|----------------------------------------------------|
G|----------------------------------------------------|
D|----------------------------------------------------|
A|-/6~-6~-6~-0-------------/6~-6~---------------------|
D|-----------0---0-0-0-0----------1-0-1-3-4p3-1-3-----| x4

e|----------------------|
B|----------------------|
G|--------let-it-fade---|
D|----------------------|
A|--0-------------------|
D|--0-------------------|

e|--------------------|
B|--------------------|
G|---played-muted-----|
D|--------------------|
A|--------------------|
D|-2-3-2-2------------|  x15

e|---------------------------------------------------------------------|
B|---------------------------------------------------------------------|
G|---------------------------------------------------------------------|
D|---------------------------------------------------------------------|
A|---------------------------------------------------------------------|
D|--6^-2-2-5^-2-2-5^-2-2-2-2-5^-2-2-5^-2-2-3-2-2-2-5^-2-3-2-2-2-3-2-2--|  x4

e|----------------------|
B|--------couldn't------|
G|---------figure-------|
D|----------this--------|
A|-----------out--------|
D|--------------,sorry--|

e|----------------------------------------------------|
B|----------------------------------------------------|
G|----------------------------------------------------|
D|-----------0----------------------------------------|
A|-/6~-6~-6~-0-------------/6~-6~---------------------|
D|-----------0---0-0-0-0----------1-0-1-3-4p3-1-3-----|

e|----------------------------------------------------|
B|----------------------------------------------------|
G|----------------------------------------------------|
D|----------------------------------------------------|
A|-/6~-6~-6~-0-------------/6~-6~---------------------|
D|-----------0---0-0-0-0----------1-0-1-3-4p3-1-3-----|  x7

| /  slide up
| \  slide down
| p  pull-off
| ~  vibrato
| ^  Bend
===============================================================================
Tap to rate this tab
# A B C D E F G H I J K L M N O P Q R S T U V W X Y Z