Song name
# A B C D E F G H I J K L M N O P Q R S T U V W X Y Z

Lamb Of God - Broken Hands tab

Lamb Of God
Broken Hands
Wrath

tuning: drop D(DADGBE)

/ slide up
\ slide down
* pinch harmonic
~ vibrato
b bend to specified number of steps
h hammer on
p pull off
. palm mute

           intro/chorus guitar 1
|--------|-------------------------------------------------|
|--------|-------------------------------------------------|
|--------|-------------13----------------------13----------|
|--------|-11-11-12-11----12-11----11-12-11-------11----12-|3X
|-4-4----|----------------------14----------14-------14----|
|-4-4----|-------------------------------------------------|
  . .

|-------------------------------------|
|-------------------------------------|
|---------7---------------------------|
|---------x---------------------------|
|---------5-------4h5p4-----4h5p4-2h4-|
|-4-2-4-5---4-2-4-4h5p4-2-2-4h5p4-2h4-|
  . . . .   . . .       . .

          intro/chorus guitar 2
|--------|---------------------------------|---------------------------------|
|--------|---------------------------------|---------------------------------|
|--------|---------------------------------|---------------------------------|
|--------|-2-2-2-2-2-2-2-2-2-2-2-2-5-5-5-5-|-4-4-4-4-4-4-4-2-2-2-2-2-2-2-2-2-|
|-4-4----|-2-2-2-2-2-2-2-2-2-2-2-2-5-5-5-5-|-4-4-4-4-4-4-4-2-2-2-2-2-2-2-2-2-|
|-4-4----|-2-2-2-2-2-2-2-2-2-2-2-2-5-5-5-5-|-4-4-4-4-4-4-4-2-2-2-2-2-2-2-2-2-|
  . .

|---------------------------------|-------------------------------------|
|---------------------------------|-------------------------------------|
|---------------------------------|---------7---------------------------|
|-5-5-5-5-5-5-5-5-5-5-5-5-5-5-5-5-|---------x---------------------------|
|-5-5-5-5-5-5-5-5-5-5-5-5-5-5-5-5-|---------5-------4h5p4-----4h5p4-2h4-|
|-5-5-5-5-5-5-5-5-5-5-5-5-5-5-5-5-|-4-2-4-5---4-2-4-4h5p4-2-2-4h5p4-2h4-|
                                    . . . .   . . .       . .

             verse guitars 1 and 2
|-----------||----------------------------------|
|-----------||----------------------------------|
|-----------||----------------------------------|
|-----------||----------------------------------|
|-0000-00-0-||-0000-00-0--000-0-0-2-0-3-0-2-0-0-|
|-0000-00-0-||-0000-00-0--000-0-0-2-0-3-0-2-0-0-|
  .... ..      .... ..    ...   .   .   .   .

|--------------------------------|
|--------------------------------|
|--------------------------------|
|--------------------------------|4X
|-0000-00-0--000-0-0-000-000-000-|
|-0000-00-0--000-0-0-000-000-000-|
  .... ..    ...   . ... ... ...

pre-chorus guitars 1 and 2
|--------------------------------------|
|--------------------------------------|
|--------------------------------------|
|--------------------------------------|2X
|--------------------------------------|
|-0111110111113p1101111111011111-3*b1~-|
  ..............................

|----------------------------------------|---------------------------------|
|----------------------------------------|---------------------------------|
|----------------------------------------|---------------------------------|
|----------------------------------------|---------------------------------|
|-------------------------------------2--|-----------------------------1-0-|
|-111-1--111-1--111-1--111-1--111-9\55---|-111-1--111-2--111-0--111-0--1-0-|
  ...    ...    ...    ...    ...          ...    ...    ...    ...    . .

chorus

verse

pre-chorus

chorus

solo
|----------------------|-------------------|----------------------|
|-9-------9-------11---|-12-----12---------|-14-----14------------|
|-11b1~---11b1~---13b1-|-14b1---14b1~------|-16b1---16b1~---------|
|----------------------|-------------------|----------------------|
|----------------------|-------------------|----------------------|
|----------------------|-------------------|----------------------|

|--------------------------------------------------------------------------|
|-17-14-------17p14-17p14-------19p17-19p17-------17p14-------17p14--------|
|-------17-16-------------17-16-------------17-16-------17-16--------17-16-|
|--------------------------------------------------------------------------|
|--------------------------------------------------------------------------|
|--------------------------------------------------------------------------|

|-------------------|
|-19b1.5~-----------|
|-------------------|
|-------------------|
|-------------------|
|-------------------|


rhythm for solo
|---------------------------------|
|---------------------------------|
|---------------------------------|
|-2-2-2-0-0-0-5-5-5-0-0-0-000-0-0-|
|-2-2-2-0-0-0-5-5-5-0-0-0-000-0-0-|
|-2-2-2-0-0-0-5-5-5-0-0-0-000-0-0-|
                          ... . .

3rd verse
|--------------------------|
|--------------------------|
|--------------------------|
|--------------------------|repeat
|--------------------------|
|-000000000--0000000-00000-|
  .........  ....... .....

|---------------------------------|     |----------------------------------|
|---------------------------------|     |----------------------------------|
|---------------------------------|     |----------------------------------|
|-2-2-2-0-0-0-5-5-5-0-0-0-000-0-0-|2x   |----------------------------------|
|-2-2-2-0-0-0-5-5-5-0-0-0-000-0-0-|     |----------------------------------|
|-2-2-2-0-0-0-5-5-5-0-0-0-000-0-0-|     |-22222200000055555500000000000000-|
                          ... . .         ................................

chorus

outro(use first verse riff)

then
|--------------------------|
|--------------------------|
|--------------------------|
|--------------------------|
|-0000-00-0--000-0-0-000-0-|
|-0000-00-0--000-0-0-000-0-|
  .... ..    ...   . ...
Tap to rate this tab
# A B C D E F G H I J K L M N O P Q R S T U V W X Y Z