Song name
# A B C D E F G H I J K L M N O P Q R S T U V W X Y Z

Lamb Of God - In Your Words tab

-------------------------------------------------------------------------------
	     Lamb of God/// In Your Words/// #2 on the Wrath album
-------------------------------------------------------------------------------
  I did this straight out of the Lamb of God tab book. Straight legit everything is 
I did it cuz the only other tab is pretty good but a lot of underneath stuff is missing.


Tabbed by:Hoosha
Email:nevans@spsu.edu

Tuning:drop d  DADGBE
very fast 235 beats/min
Guit. #1 (lead) riff A part 1
e|--------------------------------------------------------------------------|
B|--------------------------------------------------------------------------|
G|--------------------------------------------------------------------------|
D|--------------------------------------------------------------------------|
A|---------------------------------11------------------------12------10-11-8|
D|-0-0-12-0-12-0-12-0-12-0-12-0-12---12-0-0-12-0-12-0-12-0-10--10-9-8-------|
   x x    x    x    x    x    x         x x    x    x    x

Guitar #2(rhythm)only beginning
e|--------------------------------------------------------------------------|
B|--------------------------------------------------------------------------|
G|--------------------------------------------------------------------------|
D|--------------------------------------------------------------------------|
A|00-------------------------------00-00------------------------------------|
D|00-------------------------------00-00------------------------------------|
  xx                               xx xx
lead part #2
e|--------------------------------------------------------------------------|
B|--------------------------------------------------------------------------|
G|--------------------------------------------------------------------------|
D|-----------------------------------------------------------5-4------------|
A|----------------------------------11----7------5-6-3-3-2-0-----6-5--------|
D|0-0-12-0-12-0-12-0-12-0-12-0-12-0---12-5--5-4-3-------3-2-0--------6------|
  x x    x    x    x    x    x    x      x  x x x x     x x x     /stop here
 before the first repeat.

rhythm (only beginning)
e|--------------------------------------------------------------------------|
B|--------------------------------------------------------------------------|
G|--------------------------------------------------------------------------|
D|------------------------------------------------------------5-4-----------|
A|00---------------------------------------7------5-6-3-3-2-0-----6-5-------|
E|00--------------------------------------5--5-4-3-------3-2-0---------6----|
  xx                                      x x x x

Both Guitars play lead riff A all the way through twice


Verse Riff quarter time feel.
Rhythm (both Guitars)part #1
e|--------------------------------------------------------------------------|
B|--------------------------------------------------------------------------|
G|--------------------------------------------------------------------------|
D|--------------------------------------------------------------------------|
A|0-0-12p0-12p0-0-0-12p0-0-0-0-0-0-0-0-0-0-0-0-0-0-0-11-11-11-11-11-11-11-11|
D|0-0-0----0----0-0--0---0-0-0-0-0-0-0-0-0-0-0-0-0-0-0--0--0--0--0--0--0--0-|
  x x           x x      x x x x x x x x x x x x x x x  x  x
part #2
e|----------------------------------------------------------------------------|
B|----------------------------------------------------------------------------|
G|----------------------------------------------------------------------------|
D|----------------------------------------------------------------------------|
A|0-0-12p0-12p0-0-0-12p0-0-0-0--------------8p5-8p5---------7p3-----5/4-------|
D|0-0-0----0----0-0-0----0-0-0-10-14-10-5-5-5---5---5-5-3-3-3---2-2-2---------|
  x x           x x      x x x x   x  x x x         x x x x     x x


REPEAT PART 1!!!!!!!!!!!!!!!!!!!!


part #3
e|--------------------------------------------------------------------------|
B|--------------------------------------------------------------------------|
G|--------------------------------------------------------------------------|
D|--------------------------------------------------------------------------|
A|0-0-12p0-12p0-0-0-12p0-0-0-0-0-0-0------------------------------4---------|
E|0-0-0----0----0-0-0----0-0-0-0-0-0-3-2-1-3-2-1-0-3-6-3-0-5-6-5-7----------|
  x x           x x      x x x x x x

Verse Riff half time feel
part #1
e|--------------------------------------------------------------------------|
B|--------------------------------------------------------------------------|
G|--------------------------------------------------------------------------|
D|----------------------------------4-4-4-4-4-4---3-3-3-3-3-3---------------|
A|0-0-3p0-3p0-0-0-3p0-0-0-0-0-0-0-0-5-5-5-5-5-5-5-5-5-5-5-5-5---------------|
D|0-0-3p0-3p0-0-0-3p0-0-0-0-0-0-0-0-0-0-0-0-0-0-0-0-0-0-0-0-0---------------|
  x x         x x     x x x x x x x             x
part #2
e|----------------------------------------------------------------------------|
B|----------------------------------------------------------------------------|
G|----------------------------------8-8-8-8-8-8-------------------------------|
D|----------------------------------x-x-x-x-x-x---4-4-4-4-4-4-----------------|
A|0-0-3p0-3p0-0-0-3p0-0-0-0-0-0-0-0-6-6-6-6-6-6---5-5-5-5-5-5-----------------|
D|0-0-3p0-3p0-0-0-3p0-0-0-0-0-0-0-0-0-0-0-0-0-0-0-0-0-0-0-0-0-----------------|
  x x         x x     x x x x x x x             x
play this part all the way through twice then go to pre-chorus

Pre-Chorus Riff
part #1
e|--------------------------------------------------------------------------|
B|--------------------------------------------------------------------------|
G|--------------------------------------------------------------------------|
D|--------------------------------------------------------------------------|
A|--5-5-5-5-5-5-5-5-5-5-5-5-5-5-5---8-8-8-8-8-8-8---7-7-7-7---5-5-----------|
D|8-8-8-8-8-8-8-8-8-8-8-8-8-8-8-8-5-5-5-5-5-5-5-5-3-3-3-3-3-2-2-2-----------|
  x                               x               x         x
part #2
e|----------------------------------------------------------------------------|
B|----------------------------------------------------------------------------|
G|----------------------------------------------------------------------------|
D|----------------------------------------------------------------------------|
A|----5---5---5---5-------4-4-4-------5---5---5---5---------7-7-7-------------|
D|0-0-0-0-0-0-0-0-0-0-0-0-1-1-1p0-0-0-0-0-0-0-0-0-0-0-0-0-7-7-7-7-------------|
  x x   x   x   x   x x x         x x   x   x   x   x x x x

REPEAT PART 1!!!!!!!!!!!!!!!!!!!!!!!!!!!!!!!


Chorus is just The opening riff, both guitars play the lead part.
The book didn't write all of this extra shit  either.
after chorus just do it all over again.


I honestly didn't feel like tabbin the rest of this song. If you want it e-mail me. Its 
a bunch of chords and i did not feel like typing all of that.

the hardest thing about this song is the speed at which you to pick the 0-12-0 stuff and 
prechorus riff. And everything in this song is alternate picking up and down the whole 
Its a tough one, Im still workin on it
Tap to rate this tab
 
# A B C D E F G H I J K L M N O P Q R S T U V W X Y Z