Song name
# A B C D E F G H I J K L M N O P Q R S T U V W X Y Z

Lamb Of God - Ruin tab

Artist: Lamb Of God
Song: Ruin
Album: As The Palaces Burn
Tuning: Drop D (D A D G B E)
Comes In Around 2:10 And Ends About 2:25

SOLO
|---------------------------------------------------------------------|
|---------------------------------------------------13-12-13-12-------|
|-------------------11-12-11-------------14^-14^-12-------------11^~~-|
|----11-12-11-12-14----------14-13-12-13------------------------------|
|-14------------------------------------------------------------------|
|---------------------------------------------------------------------|

SOLO
continued                             |-----SECTION 1-----------------------|
|-19-15----15-19-15-20-15-19-15-17-15-17-14----14-17-14-19-14-17-14-15-14---|
|-------17----------------------------------15------------------------------|
|---------------------------------------------------------------------------|
|---------------------------------------------------------------------------|
|---------------------------------------------------------------------------|
|---------------------------------------------------------------------------|

play SECTION 1 (2x)

SOLO
continued
|-15-14-12-14-12----12-------------------|
|----------------15----15-13-15-13-12-15-|
|----------------------------------------|
|----------------------------------------|
|----------------------------------------|
|----------------------------------------|

THERE YOU GO! HOPE YAH LIKE IT. KEEP ROCKIN AND I WILL KEEP POSTING TABS< IF YAH WANT ME 
TAB A SONG I WOULD BE GLAD TO HEAR FROM YOU, PEACE!
Tap to rate this tab
# A B C D E F G H I J K L M N O P Q R S T U V W X Y Z