Song name
# A B C D E F G H I J K L M N O P Q R S T U V W X Y Z

Lamb Of God - Reclamation tab

Tabbed by:Rocky


Okay so this is a result of epic boredom at school.

I made the original tab about a year ago and i always thought some amazing musician 
come along and completely correct mine.

The original (version 1 and 2(and version 3 is basically my tab copied and some added 
stuff by someone else)) was my very first tab and i guess it was good enough for some 
to get a general idea of how i
learned how to play this song.
Anyways, here is an updated tab, all from memory and constant *playback* on my zune to 
the parts in my head.

I realize the last little bits are definitely off, i will update them again as soon as i 
around to it, but thats just a general idea, just like the rest of the tab.

Enjoy.

0:17

d#----------------------------------------------------------| - x5
a#---------3------------------------------------------------|
f#-----2-----2--------------2-------------------------------|
c#-------0----------------------------6-6-------------------|
g#-0~---------0-1p0-1p0-----------3-3-3-3-------------------|
c#-0~---------0-1p0-1p0-0-0~--0-0-3-3-3-3-------------------|(Acoustic)

                                      ^ gradually bend the 6's

0:38

d#-------------------------------------------------------------| -x5
a#------3------------------------------------------------------|
f#---2----2-------------2--------------------------------------|
c#-----0-------------------------6-6---------------------------|
g#---------------------------3-3-3-3---------------------------|
c#-0~-------0-1-0-1-0-0---0--3-3-3-3---------------------------|(Electric clean)

                                 ^ also gradually bend these 6's

0:54

d#------------|-----------------------------------------------------| -x4
a#------------|-----------------------------------------------------|
f#------------|-----------------------------------------------------|
c#------------|--7----------7-7---------7-7---------7-7-7-7-7-7---7-|
g#-3-3-3-3-3-3|--5----------5-5---------5-5---------5h6-6-6-6-6---5-|
c#-3-3-3-3-3-3|----0-0-0-0-0---0-0-0-0-0---0-0-0-0-0----------------|
   . . . . . .    . . . . .   . . . . .   . . . . .

1:11

d#----------------------------------------------------------| -x4
a#----------------------------------------------------------|
f#---------7~-----------------------------------------------|
c#---------7~------------------------6-6-6------------------|
d#-0~--0---5~--0-1-0-1-0--0----3-3-3-3-3-3------------------|
c#-0~--0-------0-1-0-1-0--0-0--3-3-3-3-3-3------------------|

1:28
                            Clean
d#-------------------------------------------------------------| -x2
a#------3------------------------------------------------------|
f#---2----2-------------2--------------------------------------|
c#-----0-------------------------6-6---------------------------|
g#---------------------------3-3-3-3---------------------------|
c#-0~-------0-1-0-1-0-0---0--3-3-3-3---------------------------|


1:34
                            Back to distortion
d#------------|-----------------------------------------------------| -x4
a#------------|-----------------------------------------------------|
f#------------|-----------------------------------------------------|
c#------------|--7----------7-7---------7-7---------7-7-7-7-7-7---7-|
g#-3-3-3-3-3-3|--5----------5-5---------5-5---------5h6-6-6-6-6---5-|
c#-3-3-3-3-3-3|----0-0-0-0-0---0-0-0-0-0---0-0-0-0-0----------------|
   . . . . . .     . . . . .   . . . . .   . . . . .


1:52

d#-----------------------------------------------|
a#-----------------------------------------------|
f#-7-7---7-7---7-7---7-7---7-7---7-7---7-7---7---|
c#-7-7-x-7-7-x-7-7-x-7-7-x-7-7-x-7-7-x-7-7-x-7-7^| - Quick half bend
d#-4-4-x-4-4-x-4-4-x-4-4-x-5-5-x-5-5-x-5-5-x-5---|
c#-4-4-x-4-4-x-4-4-x-4-4-x-5-5-x-5-5-x-5-5-x-5---|

1:57

d#----------------------------------------------------|
a#----------------------------------------------------|
f#----------------------------------------------------|
c#--10-10------------------10-10----------------------|
d#-6--6--6----------------6--6--6---------------------|
c#--------1p0-0-0-0-0-0-0---------1p0-0-0-0-0-0-------|
              . . . . . .             . . . . .


2:00

d#-----------------------------------------------|
a#-----------------------------------------------|
f#-7-7---7-7---7-7---7-7---7-7---7-7---7-7---7---|
c#-7-7-x-7-7-x-7-7-x-7-7-x-7-7-x-7-7-x-7-7-x-7-7^|
d#-4-4-x-4-4-x-4-4-x-4-4-x-5-5-x-5-5-x-5-5-x-5---|
c#-4-4-x-4-4-x-4-4-x-4-4-x-5-5-x-5-5-x-5-5-x-5---|

2:05

d#-----------------------------------------------------------|
a#-----------------------------------------------------------|
f#-----------------------------9-9-9-9-9--------9-9-9-9-9----|
c#----6-6-6-6-6----------------7-7-7-7-7--------7-7-7-7-7----|
d#----0-0-0-0-0----------------5-5-5-5-5--------7-7-7-7-7----|
c#----0-0-0-0-0---0-0-0-0-0-0------------0-0-0--7-7-7-7-7----|
                  . . . . . .            . . .


2:08

d#-----------------------------------------------|
a#-----------------------------------------------|
f#-7-7---7-7---7-7---7-7---7-7---7-7---7-7---7---|
c#-7-7-x-7-7-x-7-7-x-7-7-x-7-7-x-7-7-x-7-7-x-7-7^|
d#-4-4-x-4-4-x-4-4-x-4-4-x-5-5-x-5-5-x-5-5-x-5---|
c#-4-4-x-4-4-x-4-4-x-4-4-x-5-5-x-5-5-x-5-5-x-5---|

2:12

d#----------------------------------------------------|
a#----------------------------------------------------|
f#----------------------------------------------------|
c#--10-10------------------10-10----------------------|
d#-6--6--6----------------6--6--6---------------------|
c#--------1p0-0-0-0-0-0-0---------1p0-0-0-0-0-0-------|

2:16

d#-----------------------------------------------|-----------|
a#-----------------------------------------------|-----------|
f#-7-7---7-7---7-7---7-7---7-7---7-7---7-7---7-7-|-----------|
c#-7-7-x-7-7-x-7-7-x-7-7-x-7-7-x-7-7-x-7-7-x-7-7-|-----------|
d#-4-4-x-4-4-x-4-4-x-4-4-x-5-5-x-5-5-x-5-5-x-5-5-|--5--3--0~-|
c#-4-4-x-4-4-x-4-4-x-4-4-x-5-5-x-5-5-x-5-5-x-5-5-|--5--3--0~-|
                                                    .  .


2:20
                        Clean again
d#-------------------------------------------------------------| -x2
a#------3------------------------------------------------------|
f#---2----2-------------2--------------------------------------|
c#-----0-------------------------6-6---------------------------|
g#---------------------------3-3-3-3---------------------------|
c#-0~-------0-1-0-1-0-0---0--3-3-3-3---------------------------|


2:28
                            Back to distortion again
d#------------|-----------------------------------------------------| -x4
a#------------|-----------------------------------------------------|
f#------------|-----------------------------------------------------|
c#------------|--7----------7-7---------7-7---------7-7-7-7-7-7---7-|
g#-3-3-3-3-3-3|--5----------5-5---------5-5---------5h6-6-6-6-6---5-|
c#-3-3-3-3-3-3|----0-0-0-0-0---0-0-0-0-0---0-0-0-0-0----------------|
   . . . . . .     . . . . .   . . . . .   . . . . .

2:45

d#----------------------------------------------------------| -x4
a#----------------------------------------------------------|
f#---------7~-----------------------------------------------|
c#---------7~------------------------6-6-6------------------|
d#-0~--0---5~--0-1-0-1-0--0----3-3-3-3-3-3------------------|
c#-0~--0-------0-1-0-1-0--0-0--3-3-3-3-3-3------------------|

3:02

d#-----------------------------------------------|
a#-----------------------------------------------|
f#-7-7---7-7---7-7---7-7---7-7---7-7---7-7---7---|
c#-7-7-x-7-7-x-7-7-x-7-7-x-7-7-x-7-7-x-7-7-x-7-7^|
d#-4-4-x-4-4-x-4-4-x-4-4-x-5-5-x-5-5-x-5-5-x-5---|
c#-4-4-x-4-4-x-4-4-x-4-4-x-5-5-x-5-5-x-5-5-x-5---|

3:05

d#----------------------------------------------------|
a#----------------------------------------------------|
f#----------------------------------------------------|
c#--10-10------------------10-10----------------------|
d#-6--6--6----------------6--6--6---------------------|
c#--------1p0-0-0-0-0-0-0---------1p0-0-0-0-0-0-------|

3:08

d#-----------------------------------------------|
a#-----------------------------------------------|
f#-7-7---7-7---7-7---7-7---7-7---7-7---7-7---7---|
c#-7-7-x-7-7-x-7-7-x-7-7-x-7-7-x-7-7-x-7-7-x-7-7^|
d#-4-4-x-4-4-x-4-4-x-4-4-x-5-5-x-5-5-x-5-5-x-5---|
c#-4-4-x-4-4-x-4-4-x-4-4-x-5-5-x-5-5-x-5-5-x-5---|

3:13

d#-----------------------------------------------------------|
a#-----------------------------------------------------------|
f#-----------------------------9-9-9-9-9--------9-9-9-9-9----|
c#----6-6-6-6-6----------------7-7-7-7-7--------7-7-7-7-7----|
d#----0-0-0-0-0----------------5-5-5-5-5--------7-7-7-7-7----|
c#----0-0-0-0-0---0-0-0-0-0-0------------0-0-0--7-7-7-7-7----|
                  . . . . . .            . . .

3:17

d#-----------------------------------------------|
a#-----------------------------------------------|
f#-7-7---7-7---7-7---7-7---7-7---7-7---7-7---7---|
c#-7-7-x-7-7-x-7-7-x-7-7-x-7-7-x-7-7-x-7-7-x-7-7^|
d#-4-4-x-4-4-x-4-4-x-4-4-x-5-5-x-5-5-x-5-5-x-5---|
c#-4-4-x-4-4-x-4-4-x-4-4-x-5-5-x-5-5-x-5-5-x-5---|

3:22

d#----------------------------------------------------|
a#----------------------------------------------------|
f#----------------------------------------------------|
c#--10-10------------------10-10----------------------|
d#-6--6--6----------------6--6--6---------------------|
c#--------1p0-0-0-0-0-0-0---------1p0-0-0-0-0-0-------|

3:25

d#----------------------------------------------|
a#----------------------------------------------|
f#-7-7---7-7---7-7---7-7---7-7---7-7---7-7---7-7|
c#-7-7-x-7-7-x-7-7-x-7-7-x-7-7-x-7-7-x-7-7-x-7-7|
d#-4-4-x-4-4-x-4-4-x-4-4-x-5-5-x-5-5-x-5-5-x-5-5|
c#-4-4-x-4-4-x-4-4-x-4-4-x-5-5-x-5-5-x-5-5-x-5-5|

3:29

d#----|-------------------------------------|
a#----|-------------------------------------|
f#----|-------------------------------------|
c#----|-------------------------------------|
d#-3-1|-00---00-00---00---00-00---00---00-00|
c#-3-1|-00---00-00---00---00-00---00---00-00|

3:57

d#------|----------------------------------------|
a#------|----------------------------------------|
f#------|----------------------------------------|
c#--/---|----------------------------------------|
d#--/--5|--------5p3-----6p5--------8p5---6-5-6-5|
c#------|-000000-----000-----000000----000-------|
          ......     ...     ......    ...

^^^^^^^^^^^^^^^^^^^^^^^^^^^^^^^^^^^^^^^^^^^^^^^^^^
Ive seen a youtube video of them playing this, and i saw that willie
was actually playing the above riff like this. You can play it either way.
vvvvvvvvvvvvvvvvvvvvvvvvvvvvvvvvvvvvvvvvvvvvvvvvvvvvvvvvvvvvvvvvvvvvvvvvv
d#------|---------------------------------------------------------------|
a#------|---------------------------------------------------------------|
f#------|---------------------------------------------------------------|
c#--/---|---------------------------------------------------------------|
d#--/---|---------------------------------------------------------------|
c#----12|-000000--12p10---000--13p12---000000--15p13--000--13-12-13-12--|
          ......          ...          ......         ...


4:21

d#----------------|---------------------------------------------------------------| -x4
a#----------------|---------------------------------------------------------------|
f#------------7---|--------------------------------------9-9--------9-9-------9---|
c#-------------7--|-10-10b---------10-10b---------10-----7-7--------7-7-------7---|
d#--6--5--3-----5-|-7--7-b---------7--7-b---------7------5-5--------5-5-------5---|
c#--6--5--3-------|--------0-0-000--------0-0-000---00000----0-0-000----00000-----|
    .  .  .                . . ...        . . ...   .....    . . ...    .....

4:52

d#---------------------------------------------------------|-x7
a#---------------------------------------------------------|
f#--7-7b-------7-7b-------7--------------------------------|
c#-----------------------------7-----5--5/-----------------|
d#--5-5b-------5-5b-------5----3-----3--3/-----------------|
c#-------0-000------0-000---00---000-------0-542-0-653-0---|
         . ...      . ...   ..   ...       . ... . ... .

         Lead over above riff

d#---------------------------------------|
a#-----------10--------------------------|
f#--/10-------------11-------------------|
c#--------------------------10b12~~~b13/-|
d#---------------------------------------|
c#---------------------------------------|
Tap to rate this tab
 
# A B C D E F G H I J K L M N O P Q R S T U V W X Y Z