Song name
# A B C D E F G H I J K L M N O P Q R S T U V W X Y Z

Lamb Of God - Forgotten Lost Angels tab

e|-------------------------------------------------------------|
b|-------------------------------------------------------------|
g|-9----9b-r~~----------9-9h10p9----9--------------------------|
d|----------------11-12----------12---12-11-12-11-8-11-8-------|
a|-------------------------------------------------------9-10--|
d|-------------------------------------------------------------|


e|----------------------------------------------------------------------------|
b|-------------------------------------------14p11p10h11p10/8h10p8/7----------|
g|-------------------------------------------------------------------8-7------|
d|-----------------------------------------------------------------------10---|
a|--10*b-r--9-10-12-12h13p12-10-12-10-9-10-9----------------------------------|
d|----------------------------------------------------------------------------|


e|-------------------------------------------------------------------------|
b|-------------------------------------------------------------------------|
g|-----------19p18p14------------------------------------------------------|
d|-17-16-16-----------18p15p14------------14-14h15p14----14----------------|
a|-----------------------------17---16-17-------------17----17-16-17-16-13-|
d|-------------------------------------------------------------------------|

e|-----------------------------------------------------------|
b|------------8p7--------------------------------------------|
g|----------------8p7p5h7h8p7p5p7p5--------------------------|
d|----------------------------------7p5h7p5p4h5p4------------|
a|-13-12-12---------------------------------------6p5p3------|
d|------------------------------------------------------6p5--|


tremelo this bar
e|-18---17----15-14-11-10--18---17---18-17-22-21b-21^-22~~~-|
b|----------------------------------------------------------|
g|----------------------------------------------------------|
d|----------------------------------------------------------|
a|----------------------------------------------------------|
d|----------------------------------------------------------|
Tap to rate this tab
# A B C D E F G H I J K L M N O P Q R S T U V W X Y Z