Song name
# A B C D E F G H I J K L M N O P Q R S T U V W X Y Z

Lamb Of God - Straight To The Sun tab

here you go....



Tuning:BF#BEG#B

e|--------------------------------------------------|
B|--------------------------------------------------|
G|--------------------------------------------------|
D|--------------------------------------------------|
A|-2------------------------------------------------|
E|-2-3br-2-/9-8--3br-2-/8-7--3br-2-/7-6-3--2-3-4-5--|

                                                          X 2

e|--------------------------------------------------|
B|--------------------------------------------------|
G|--------------------------------------------------|   
D|--------------------------------------------------|
A|-2------------------------------------------------|
E|-2-3br-2-/9-8--3br-2-/8-7--3br-2-/7-6-3-2--2222-0-|



e|-----------------------------------------------------|
B|-----------------------------------------------------|
G|-----------------------------------------------------|  X 2
D|-----------------------------------------------------|
A|-2-2-0--2-2-0--2-2-0-2-3-2-0--2-2-0-2-2-0-2----------|
E|-2-2-0--2-2-0--2-2-0-2-3-2-0--2-2-0-2-2-0-2-/9-8-7-5-|



e|--------------------------------------------------|
B|--------------------------------------------------|
G|--------------------------------------------------|
D|--------------------------------------------------|
A|-2------------------------------------------------|
E|-2-3br-2-/9-8--3br-2-/8-7--3br-2-/7-6-3--2-3-4-5--|

                                                          X 2

e|--------------------------------------------------|
B|--------------------------------------------------|
G|--------------------------------------------------|   
D|--------------------------------------------------|
A|-2------------------------------------------------|
E|-2-3br-2-/9-8--3br-2-/8-7--3br-2-/7-6-3-2-2-2-0-2-|




************************************

| /   slide up
| \   slide down
| h   hammer-on
| p   pull-off
| ~   vibrato
| +   harmonic
| x   Mute note
| b   Bend
| pb  Pre-bend
| br  Bend release
| pbr Pre-bend release
| brb Bend release bend

************************************
Tap to rate this tab
 
# A B C D E F G H I J K L M N O P Q R S T U V W X Y Z