Song name
# A B C D E F G H I J K L M N O P Q R S T U V W X Y Z

Lamb Of God - Straight For The Sun tab

-------------------------------------------------------------------------------
                             STRAIGHT FOR THE SUN - Lamb of God
-------------------------------------------------------------------------------
Tabbed by: Hushie_619 (Leigh)
Email: leighhuslage@live.ca

Tuning: Drop B (B F# B E G# C#)

Intro:
e|------------------------------------------------------------| x4
B|------------------------------------------------------------|
G|------------------------------------------------------------|
D|-0---------------------------------------------1--0---1-0-0-|
A|-0---------------------------------------------1--0---1-0-0-|
E|-0--1br-0-/7-6~---1br-0-/6-5~----1br-0-/5-4~---1--0---1-0-0-|
                                                        PM....
   "GOOOOOOOOOOOOOOOOOOOOOOOOOOOOOOOOOOOOOOOOOOOOOOOOOOOOONE!"

Verse:
e|----------------------------------------|
B|----------------------------------------|
G|----------------------------------------|
D|-0---0-10-0---0-10-0---0-10-0-13-0-10-0-|
A|-0---0-10-0---0-10-0---0-10-0-13-0-10-0-|
E|-0---0-10-0---0-10-0---0-10-0-13-0-10-0-|
   PM....................................

   "Shoot me straight for the sun"

e|-------------------------------------|
B|-------------------------------------|
G|-------------------------------------|
D|-0---0-10-0---0-10-0-----------------|
A|-0---0-10-0---0-10-0-----------------|
E|-0---0-10-0---0-10-0--7~--6~--5~--3~-|
   PM.................

   "I want to be the only one left"

e|----------------------------------------|
B|----------------------------------------|
G|----------------------------------------|
D|-0---0-10-0---0-10-0---0-10-0-13-0-10-0-|
A|-0---0-10-0---0-10-0---0-10-0-13-0-10-0-|
E|-0---0-10-0---0-10-0---0-10-0-13-0-10-0-|
   PM....................................

   "Misdiagnosed condition"

e|-------------------------------------|
B|-------------------------------------|
G|-------------------------------------|
D|-0---0-10-0---0-10-0-----------------|
A|-0---0-10-0---0-10-0-----------------|
E|-0---0-10-0---0-10-0--7~--6~--5~--3~-|
   PM.................

   "Burnt beyond recognition"

e|----------------------------------------|
B|----------------------------------------|
G|----------------------------------------|
D|-0---0-10-0---0-10-0---0-10-0-13-0-10-0-|
A|-0---0-10-0---0-10-0---0-10-0-13-0-10-0-|
E|-0---0-10-0---0-10-0---0-10-0-13-0-10-0-|
   PM....................................

   "Sink her straight through the floor"

e|-------------------------------------|
B|-------------------------------------|
G|-------------------------------------|
D|-0---0-10-0---0-10-0-----------------|
A|-0---0-10-0---0-10-0-----------------|
E|-0---0-10-0---0-10-0--7~--6~--5~--3~-|
   PM.................

   "She is not breathing anymore"

e|----------------------------------------|
B|----------------------------------------|
G|----------------------------------------|
D|-0---0-10-0---0-10-0---0-10-0-13-0-10-0-|
A|-0---0-10-0---0-10-0---0-10-0-13-0-10-0-|
E|-0---0-10-0---0-10-0---0-10-0-13-0-10-0-|
   PM....................................

   "Choke in this atmosphere"

e|-------------------------------------|
B|-------------------------------------|
G|-------------------------------------|
D|-0---0-10-0---0-10-0-----------------|
A|-0---0-10-0---0-10-0-----------------|
E|-0---0-10-0---0-10-0--7~--6~--5~--3~-|
   PM.................

   "Nothing will be left here"

Outro:
e|------------------------------------------------------------| x2
B|------------------------------------------------------------|
G|------------------------------------------------------------|
D|-0---------------------------------------------1--0---1-0-0-|
A|-0---------------------------------------------1--0---1-0-0-|
E|-0--1br-0-/7-6~---1br-0-/6-5~----1br-0-/5-4~---1--0---1-0-0-|
                                                        PM....
   "GOOOOOOOOOOOOOOOOOOOOOOOOOOOOOOOOOOOOOOOOOOOOOOOOOOOOONE!"


************************************

| /   slide up
| \   slide down
| h   hammer-on
| p   pull-off
| ~   vibrato
| +   harmonic
| x   Mute note
| b   Bend
| pb  Pre-bend
| br  Bend release
| pbr Pre-bend release
| brb Bend release bend
| brp Bend release pull-off

************************************

Tap to rate this tab
 
# A B C D E F G H I J K L M N O P Q R S T U V W X Y Z