Song name
# A B C D E F G H I J K L M N O P Q R S T U V W X Y Z

Lamb Of God - Ghost Walking tab

This is a tab for just the intro. I might tab the rest later if I'm not feeling too lazy.

D#|-----------------------------------------------------------------|
A#|-----------------------------------------------------------------|
F#|-----------------------------------------------------------------|
C#|-----------------------------------------------------------------|
G#|---x-12\-----0~~0--------------------------x-x-------------------|
C#|---x-12\-----0~~0--12-10-0-12--0-12-10-3~--x-x-6-5~~5-5-5-6-3-5--|

D#|-----------------------------------------------------------------|
A#|-----------------------------------------------------------------|
F#|-----------------------------------------------------------------|
C#|-----------------------------------------------------------------|
G#|---0~~0--------------------------x-x-----------------------------|
C#|---0~~0--12-10-0-12--0-12-10-3~--x-x-6-5~-6-5-0-6-5-3-5----------|

D#|-----------------------------------------------------------------|
A#|-----------------------------------------------------------------|
F#|-----------------------------------------------------------------|
C#|-----------------------------------------------------------------|
G#|---0~~0--------------------------x-x-----------------------------|
C#|---0~~0--12-10-0-12--0-12-10-3~--x-x-6-5~~5-5-5-6-3-5-6-5-0-6-5-0|

D#|-----------------------------------------------------------------|
A#|-----------------------------------------------------------------|
F#|-----------------------------------------------------------------|
C#|-----------------------------------------------------------------|
G#|-----------------------------------------------------------------|
C#|-6-5-0-6-5-0-6-5-3-5-6-5-0-6-5-0-6-5-0-6-5-0-6-5-3-5-------------|
Tap to rate this tab
# A B C D E F G H I J K L M N O P Q R S T U V W X Y Z