Song name
# A B C D E F G H I J K L M N O P Q R S T U V W X Y Z

Lamb Of God - Barbarosa tab

 
-------------------------------------------------------------------------------
                             BARBAROSA - Lamb of God
-------------------------------------------------------------------------------
Tabbed by: HeadHunter455
E-mail: panther455@gmail.com

Tuning: Drop D

Side note: It's in a 3:4 Time Signature

------------Clean Guitar:

e|---------------------------------------------------------------------------|
B|---------------------------------------------------------------------------|
G|---------------------------------------------------------------------------|
D|-----4-------4-------4-------4-------1-------1-------1-------1-------------|  x2
A|---------------------------------------------------------------------------|
D|--1-------1-------1-------1-----1/4-------4-------4-------4-------4\1------|

e|---------------------------------------------------------------------------|
B|---------------------------------------------------------------------------|
G|---------------------------------------------------------------------------|
D|-----4-------4-------4-------4-------1-------1-------1-------1-------------|
A|---------------------------------------------------------------------------|
D|--1-------1-------1-------1-----1/4-------4-------4-------4-------4/6------|

e|---------------------------------------------------------------------------|
B|---------------------------------------------------------------------------|
G|---------------------------------------------------------------------------|
D|-----8-------8-------8-------8h9p8-6-----6-------6--------3-------1--------|
A|---------------------------------------------------------------------------|
D|--6-------6-------6-------6-----------4-------4-----4--0-------2-----2-----|

^This plays four times throughout the song^

--------------------------------------------------------------------------------------

------------Distorted Guitar 1:
(Plays during the last part of the clean riff each time)

e|---------------------------------------------------------------------------|
B|---------------------------------------------------------------------------|
G|---------------------------------------------------------------------------|
D|---------------------------------------------------------------------------|
A|--6--4------------------1--2--1------------0-------------------------------|
D|--------------------------------------------------------3h4p3-1------------|

(The second time this is played, instead of a 6th fret on the A
being the first note, it is a bent fourth fret pinch harmonic,
every time after the second time is played normally)

------------Distorted Guitar 1, Played second time only:
    +
e|---------------------------------------------------------------------------|
B|---------------------------------------------------------------------------|
G|---------------------------------------------------------------------------|
D|---------------------------------------------------------------------------|
A|--4br--4------------------1--2--1------------0-----------------------------|
D|--------------------------------------------------------3h4p3-1------------|

--------------------------------------------------------------------------------------

------------Distorted Guitar 2:
(Plays with Distorted Guitar 1, harmonizing)
                                                           +
e|---------------------------------------------------------------------------|
B|---------------------------------------------------------------------------|
G|-----3------------------3--4-----------------------------------------------|
D|--1---------------------------6------------4-------------------------------|
A|--------------------------------------------------3------3br--1------------|
D|---------------------------------------------------------------------------|


************************************

| /   slide up
| \   slide down
| h   hammer-on
| p   pull-off
| ~   vibrato
| +   harmonic
| x   Mute note
| b   Bend
| pb  Pre-bend
| br  Bend release
| pbr Pre-bend release
| brb Bend release bend

************************************
Tap to rate this tab
# A B C D E F G H I J K L M N O P Q R S T U V W X Y Z