Guitaretab - guitar tabs
Song name
# A B C D E F G H I J K L M N O P Q R S T U V W X Y Z

Lamb Of God - Black Label tab

Band/Artist:Lamb of God
Song Title:Black Label
Album:New American Gospel
Guitarists:Willie Adler(Lead) & Mark Morton
Tuning: D-A-D-G-B-E

Well this is my first tab.
I watched the vid of when they play this song at hellfest,
and I'm pretty sure this is right,although I did miss some bits that Mark play and I 
really sure with the outro.But I know for sure that all the other parts are correct.

. - Palm Mute
~ - Let Ring

(Intro part one)
Willie:

E---------------------------------|
B---------------------------------|
G---------------------------------|
D---------------------------------|
A---------------------------------|
D-0-0-0-0-1-0-0-3-0-4-0-3-0-0-1-0-|

Mark:

E---------------------------------|
B---------------------------------|
G---------------------------------|
D---------------------------------|
A---------------------------------|
D-0-0-0---------------------------|
  . . .

Willie:

E---------------------------------|
B---------------------------------|
G---------------------------------|
D---------------------------------|
A---------------------------------|
D-0-0-0-0-1-0-0-3-0-4-0-3-0-0-1-0-|

Mark:

E---------------------------------|
B---------------------------------|
G---------------------------------|
D---------------------------------|
A---------------------------------|
D-0--0-0--------------------------|
  .  . .

Willie:

E---------------------------------|
B---------------------------------|
G---------------------------------|
D---------------------------------|
A---------------------------------|
D-0-0-0-0-1-0-0-3-0-4-0-3-0-0-1-0-|

Mark:

E---------------------------------|
B---------------------------------|
G---------------------------------|
D---------------------------------|
A---------------------------------|
D-0-0-0---------------------------|
  . . .

Willie:

E---------------------------------|
B---------------------------------|
G---------------------------------|
D---------------------------------|
A---------------------------------|
D-0-0-0-0-1-0-0-3-0-4-0-3-0-0-1-0-|

Mark:

E---------------------------------|
B---------------------------------|
G---------------------------------|
D---------------------------------|
A---------------------------------|
D-0--0-0--------------------------|
  .  . .

Willie:

E---------------------------------|
B---------------------------------|
G---------------------------------|
D---------------------------------|
A---------------------------------|
D-0-0-0-0-1-0-0-3-0-4-0-3-0-0-1-0-|

Mark:

E---------------------------------|
B---------------------------------|
G---------------------------------|
D---------------------------------|
A---------------------------------|
D-0-0-0---------------------------|
  . . .

Willie:

E---------------------------------|
B---------------------------------|
G---------------------------------|
D---------------------------------|
A---------------------------------|
D-0-0-0-0-1-0-0-3-0-4-0-3-0-0-1-0-|

Mark:

E---------------------------------|
B---------------------------------|
G---------------------------------|
D---------------------------------|
A---------------------------------|
D-0--0-0--------------------------|
  .  . .

Willie:

E---------------------------------|
B---------------------------------|
G---------------------------------|
D---------------------------------|
A---------------------------------|
D-0-0-0-0-1-0-0-3-0-4-0-3-0-0-1-0-|

Mark:

E---------------------------------|
B---------------------------------|
G---------------------------------|
D---------------------------------|
A---------------------------------|
D-0-0-0---------------------------|
  . . .

Willie:

E---------------------------------|
B---------------------------------|
G---------------------------------|
D---------------------------------|
A---------------------------------|
D-0-0-0-0-1-0-0-3-0-4-0-3-0-0-1-0-|

Mark:

E---------------------------------|
B---------------------------------|
G---------------------------------|
D---------------------------------|
A---------------------------------|
D-0--0-0--------------------------|
  .  . .
(Intro part two)
Both Guitars:

E---------------------------------|
B---------------------------------|
G---------------------------------|
D---------------------------------|
A-0-0-0-0-1-0-0-3-0-4-0-3-0-0-1-0-|
D-0-0-0-0-1-0-0-3-0-4-0-3-0-0-1-0-|

E---------------------------------|
B---------------------------------|
G---------------------------------|
D---------------------------------|
A-0-0-0-0-1-0-0-3-0-4-0-3-0-0-1-0-|
D-0-0-0-0-1-0-0-3-0-4-0-3-0-0-1-0-|

E---------------------------------|
B---------------------------------|
G---------------------------------|
D---------------------------------|
A-0-0-0-0-1-0-0-3-0-4-0-3-0-0-1-0-|
D-0-0-0-0-1-0-0-3-0-4-0-3-0-0-1-0-|

E---------------------------------|
B---------------------------------|
G---------------------------------|
D---------------------------------|
A-0-0-0-0-1-0-0-3-0-4-0-3-0-0-1-0-|
D-0-0-0-0-1-0-0-3-0-4-0-3-0-0-1-0-|

E---------------------------------|
B---------------------------------|
G---------------------------------|
D---------------------------------|
A-0-0-0-0-1-0-0-3-0-4-0-3-0-0-1-0-|
D-0-0-0-0-1-0-0-3-0-4-0-3-0-0-1-0-|

E---------------------------------|
B---------------------------------|
G---------------------------------|
D---------------------------------|
A-0-0-0-0-1-0-0-3-0-4-0-3-0-0-1-0-|
D-0-0-0-0-1-0-0-3-0-4-0-3-0-0-1-0-|

E---------------------------------|
B---------------------------------|
G---------------------------------|
D---------------------------------|
A-0-0-0-0-1-0-0-3-0-4-0-3-0-0-1-0-|
D-0-0-0-0-1-0-0-3-0-4-0-3-0-0-1-0-|

E---------------------------------|
B---------------------------------|
G---------------------------------|
D---------------------------------|
A-0-0-0-0-1-0-0-3-0-4-0-3-0-0-1-0-|
D-0-0-0-0-1-0-0-3-0-4-0-3-0-0-1-0-|

E---------------------------------|
B---------------------------------|
G---------------------------------|
D---------------------------------|
A-0-0-0-0-1-0-0-3-0-4-0-3-0---5-6-|
D-0-0-0-0-1-0-0-3-0-4-0-3-0-6-----|
  . . . .   . .   .   .   . .

E---------------------------------|
B---------------------------------|
G---------------------------------|
D---------------------------------|
A-0-0-0-0-1-0-0-3-0-4-0-3-0-8-7-6-|
D-0-0-0-0-1-0-0-3-0-4-0-3-0-------|
  . . . .   . .   .   .   .

E---------------------------------|
B---------------------------------|
G---------------------------------|
D---------------------------------|
A-0-0-0-0-1-0-0-3-0-4-0-3-0---5-6-|
D-0-0-0-0-1-0-0-3-0-4-0-3-0-6-----|
  . . . .   . .   .   .   . .

E---------------------------------|
B---------------------------------|
G---------------------------------|
D---------------------------------|
A-0-0-0-0-1-0-0-3-0-4-0-3-0-8-7-6-|
D-0-0-0-0-1-0-0-3-0-4-0-3-0-------|
  . . . .   . .   .   .   .

E---------------------------------|
B---------------------------------|
G---------------------------------|
D---------------------------------|
A-0-0-0-0-1-0-0-3-0-4-0-3-0---5-6-|
D-0-0-0-0-1-0-0-3-0-4-0-3-0-6-----|
  . . . .   . .   .   .   . .

E---------------------------------|
B---------------------------------|
G---------------------------------|
D---------------------------------|
A-0-0-0-0-1-0-0-3-0-4-0-3-0-8-7-6-|
D-0-0-0-0-1-0-0-3-0-4-0-3-0-------|
  . . . .   . .   .   .   .

E---------------------------------|
B---------------------------------|
G---------------------------------|
D---------------------------------|
A-0-0-0-0-1-0-0-3-0-4-0-3-0---5-6-|
D-0-0-0-0-1-0-0-3-0-4-0-3-0-6-----|
  . . . .   . .   .   .   . .

E---------------------------------|
B---------------------------------|
G---------------------------------|
D---------------------------------|
A-0-0-0-0-1-0-0-3-0-4-0-3-0-8-7-6-|
D-0-0-0-0-1-0-0-3-0-4-0-3-0-------|
  . . . .   . .   .   .   .

(Chorus)

E------------------------------------------------------|
B------------------------------------------------------|
G------------------------------------------------------|
D------------------------------------------------------|
A-------------------------0-0-0-0-8-9-8-0-0-6-7-6------|
D-1-0-3~--1-0-3~--1-0-3-4-0-0-0-0-------0-0--------3-2-|
                          . . . .       . .        . .

E------------------------------------------------------|
B------------------------------------------------------|
G------------------------------------------------------|
D------------------------------------------------------|
A-------------------------0-0-0-0-8-9-8-0-0-6-7-6------|
D-1-0-3~--1-0-3~--1-0-3-4-0-0-0-0-------0-0--------3-2-|
                          . . . .       . .        . .

E------------------------------------------------------|
B------------------------------------------------------|
G------------------------------------------------------|
D------------------------------------------------------|
A-------------------------0-0-0-0-8-9-8-0-0-6-7-6------|
D-1-0-3~--1-0-3~--1-0-3-4-0-0-0-0-------0-0--------3-2-|
                          . . . .       . .        . .

E------------------------------------------------------|
B------------------------------------------------------|
G------------------------------------------------------|
D------------------------------------------------------|
A-------------------------0-0-0-0-8-9-8-0-0-6-7-6------|
D-1-0-3~--1-0-3~--1-0-3-4-0-0-0-0-------0-0--------3-2-|
                          . . . .       . .        . .

Willie:

E-----------------------------|
B-----------------------------|
G-----------------------------|
D-----------------------------|
A-0-0-0-0-8-9-8-0-0-6-7-6-----|
D-0-0-0-0-------0-0-------3-2-|
  . . . .       . .       . .
[ Tab from: http://www.guitaretab.com/l/lamb-of-god/34992.html ]
Mark:(Sorry I don't know what Mark plays here)

Willie:

E-----------------------------|
B-----------------------------|
G-----------------------------|
D-----------------------------|
A-0-0-0-0-8-9-8-0-0-6-7-6-----|
D-0-0-0-0-------0-0-------3-2-|
  . . . .       . .       . .

Mark:?

Willie:

E-----------------------------|
B-----------------------------|
G-----------------------------|
D-----------------------------|
A-0-0-0-0-8-9-8-0-0-6-7-6-----|
D-0-0-0-0-------0-0-------3-2-|
  . . . .       . .       . .

Mark:?

Willie:

E-----------------------------|
B-----------------------------|
G-----------------------------|
D-----------------------------|
A-0-0-0-0-8-9-8-0-0-6-7-6-----|
D-0-0-0-0-------0-0-------3-2-|
  . . . .       . .       . .

Mark:?

Willie:

E-----------------------------|
B-----------------------------|
G-----------------------------|
D---------5-7-5-----3-5-3-----|
A-0-0-0-0-------0-0-----------|
D-0-0-0-0-------0-0-------3-2-|
  . . . .       . .       . .

Mark:?

Willie:

E-----------------------------|
B-----------------------------|
G-----------------------------|
D---------5-7-5-----3-5-3-----|
A-0-0-0-0-------0-0-----------|
D-0-0-0-0-------0-0-------3-2-|
  . . . .       . .       . .

Mark:?

Willie:

E-----------------------------|
B-----------------------------|
G-----------------------------|
D---------5-7-5-----3-5-3-----|
A-0-0-0-0-------0-0-----------|
D-0-0-0-0-------0-0-------3-2-|
  . . . .       . .       . .

Mark:?

Willie:

E-----------------------------|
B-----------------------------|
G-----------------------------|
D---------5-7-5-----3-5-3-----|
A-0-0-0-0-------0-0-----------|
D-0-0-0-0-------0-0-------3-2-|
  . . . .       . .       . .

Mark:?

Both Guitars:

E-----------------------------------------------------------------|
B-----------------------------------------------------------------|
G-----------------------------------------------------------------|
D-----------------------------------------------------------------|
A-----------------------------------------------------------------|
D-000-000-000-000-000-000-000-000-000-000-000-000-000-000-000-000-|
  ... ... ... ... ... ... ... ... ... ... ... ... ... ... ... ...

E---------------------------------------------------------------|
B---------------------------------------------------------------|
G---------------------------------------------------------------|
D---------------------------------------------------------------|
A-0-0-0-00000-0-0-00000-0-0-00000-0-0-00000-0-0-00000-0-0-00000-|
D-0-0-0-00000-0-0-00000-0-0-00000-0-0-00000-0-0-00000-0-0-00000-|(continues)
  . . .     . . .     . . .     . . .     . . .     . . .     .

E---------------------------------------------------------------|
B---------------------------------------------------------------|
G---------------------------------------------------------------|
D---------------------------------------------------------------|
A-0-0-0-00000-0-0-00000-0-0-00000-0-0-00000-0-0-00000-0-0-00000-|
D-0-0-0-00000-0-0-00000-0-0-00000-0-0-00000-0-0-00000-0-0-00000-|(continues)
  . . .     . . .     . . .     . . .     . . .     . . .     .

E-------------------------------------------|
B-------------------------------------------|
G-------------------------------------------|
D-------------------------------------------|
A-0-0-0-00000-0-0-00000-0-0-00000-0-0-00000-|
D-0-0-0-00000-0-0-00000-0-0-00000-0-0-00000-|
  . . .     . . .     . . .     . . .     .

E------------------------------------------------------|
B------------------------------------------------------|
G------------------------------------------------------|
D------------------------------------------------------|
A-------------------------0-0-0-0-8-9-8-0-0-6-7-6------|
D-1-0-3~--1-0-3~--1-0-3-4-0-0-0-0-------0-0--------3-2-|
                          . . . .       . .        . .

E------------------------------------------------------|
B------------------------------------------------------|
G------------------------------------------------------|
D------------------------------------------------------|
A-------------------------0-0-0-0-8-9-8-0-0-6-7-6------|
D-1-0-3~--1-0-3~--1-0-3-4-0-0-0-0-------0-0--------3-2-|
                          . . . .       . .        . .

E------------------------------------------------------|
B------------------------------------------------------|
G------------------------------------------------------|
D------------------------------------------------------|
A-------------------------0-0-0-0-8-9-8-0-0-6-7-6------|
D-1-0-3~--1-0-3~--1-0-3-4-0-0-0-0-------0-0--------3-2-|
                          . . . .       . .        . .

E----------------------------|
B----------------------------|
G----------------------------|
D----------------------------|
A--------------------------0-|
D-1-0-3~--1-0-3~--1-0-3-4--0-|
                           .

E---------------------------------|
B---------------------------------|
G---------------------------------|
D---------------------------------|
A-0-0-0-0-1-0-0-3-0-4-0-3-0---5-6-|
D-0-0-0-0-1-0-0-3-0-4-0-3-0-6-----|
  . . . .   . .   .   .   . .

E---------------------------------|
B---------------------------------|
G---------------------------------|
D---------------------------------|
A-0-0-0-0-1-0-0-3-0-4-0-3-0-8-7-6-|
D-0-0-0-0-1-0-0-3-0-4-0-3-0-------|
  . . . .   . .   .   .   .

E---------------------------------|
B---------------------------------|
G---------------------------------|
D---------------------------------|
A-0-0-0-0-1-0-0-3-0-4-0-3-0---5-6-|
D-0-0-0-0-1-0-0-3-0-4-0-3-0-6-----|
  . . . .   . .   .   .   . .

E---------------------------------|
B---------------------------------|
G---------------------------------|
D---------------------------------|
A-0-0-0-0-1-0-0-3-0-4-0-3-0-8-7-6-|
D-0-0-0-0-1-0-0-3-0-4-0-3-0-------|
  . . . .   . .   .   .   .

E---------------------------------|
B---------------------------------|
G---------------------------------|
D---------------------------------|
A-0-0-0-0-1-0-0-3-0-4-0-3-0---5-6-|
D-0-0-0-0-1-0-0-3-0-4-0-3-0-6-----|
  . . . .   . .   .   .   . .

E---------------------------------|
B---------------------------------|
G---------------------------------|
D---------------------------------|
A-0-0-0-0-1-0-0-3-0-4-0-3-0-8-7-6-|
D-0-0-0-0-1-0-0-3-0-4-0-3-0-------|
  . . . .   . .   .   .   .

Willie:

E-----------------------------|
B-----------------------------|
G-----------------------------|
D-----------------------------|
A-0-0-0-0-8-9-8-0-0-6-7-6-----|
D-0-0-0-0-------0-0-------3-2-|
  . . . .       . .       . .

Mark:?

Willie:

E-----------------------------|
B-----------------------------|
G-----------------------------|
D-----------------------------|
A-0-0-0-0-8-9-8-0-0-6-7-6-----|
D-0-0-0-0-------0-0-------3-2-|
  . . . .       . .       . .

Mark:?

Willie:

E-----------------------------|
B-----------------------------|
G-----------------------------|
D-----------------------------|
A-0-0-0-0-8-9-8-0-0-6-7-6-----|
D-0-0-0-0-------0-0-------3-2-|
  . . . .       . .       . .

Mark:?

Willie:

E-----------------------------|
B-----------------------------|
G-----------------------------|
D-----------------------------|
A-0-0-0-0-8-9-8-0-0-6-7-6-----|
D-0-0-0-0-------0-0-------3-2-|
  . . . .       . .       . .

Mark:?

Willie:

E-----------------------------|
B-----------------------------|
G-----------------------------|
D---------5-7-5-----3-5-3-----|
A-0-0-0-0-------0-0-----------|
D-0-0-0-0-------0-0-------3-2-|
  . . . .       . .       . .

Mark:?

Willie:

E-----------------------------|
B-----------------------------|
G-----------------------------|
D---------5-7-5-----3-5-3-----|
A-0-0-0-0-------0-0-----------|
D-0-0-0-0-------0-0-------3-2-|
  . . . .       . .       . .

Mark:?

Willie:

E-----------------------------|
B-----------------------------|
G-----------------------------|
D---------5-7-5-----3-5-3-----|
A-0-0-0-0-------0-0-----------|
D-0-0-0-0-------0-0-------3-2-|
  . . . .       . .       . .

Mark:?

Willie:

E-----------------------------|
B-----------------------------|
G-----------------------------|
D---------5-7-5-----3-5-3-----|
A-0-0-0-0-------0-0-----------|
D-0-0-0-0-------0-0-------3-2-|
  . . . .       . .       . .

Both Guitars:(Just let it ring for a while)
E---------------------------|
B---------------------------|
G---------------------------|
D---------------------------|
A-0~~~----------------------|
D-0~~~----------------------|

(Outro)I'm not sure about this bit so I just looked at the other tabs and played which 
sounded the most correct.

Willie:

E-------------------------|
B-------------------------|
G-------8-8-8---------7-7-|
D-------7-7-7---6-6---7-7-|
A-0-0-0-6-6-6-0-6-6-0-5-5-|
D-0-0-0-------0-6-6-0-----|
  . . .       .     .

E-------------------------|
B-------------------------|
G-------8-8-8---------7-7-|
D-------7-7-7---6-6---7-7-|
A-0-0-0-6-6-6-0-6-6-0-5-5-|
D-0-0-0-------0-6-6-0-----|
  . . .       .     .

E-------------------------|
B-------------------------|
G-------8-8-8---------7-7-|
D-------7-7-7---6-6---7-7-|
A-0-0-0-6-6-6-0-6-6-0-5-5-|
D-0-0-0-------0-6-6-0-----|
  . . .       .     .

E-------------------------|
B-------------------------|
G-------8-8-8---------7-7-|
D-------7-7-7---6-6---7-7-|
A-0-0-0-6-6-6-0-6-6-0-5-5-|
D-0-0-0-------0-6-6-0-----|
  . . .       .     .

Now Both Guitars:

E-------------------------|
B-------------------------|
G-------8-8-8---------7-7-|
D-------7-7-7---6-6---7-7-|
A-0-0-0-6-6-6-0-6-6-0-5-5-|
D-0-0-0-------0-6-6-0-----|
  . . .       .     .

(They play that about twelve times as the sound starts to fade away)
Related for Black Label tab
Advertisement will be closed in 10 seconds