Song name
# A B C D E F G H I J K L M N O P Q R S T U V W X Y Z

Lamb Of God - Straight For The Sun tab

I tabbed this song out tuned to Drop A on a SEVEN STRING guitar
(low to high AEaDGBe) you can play this on a 6 string in drop A too, i just dont
have a 6 string tuned that low.

its an easy song, good for anyone getting used to a new 7 string, or anyone who
just loves a slow grooved out doom metal styled song. enjoy!


Key:
~   vibrato
/   slide down
\   slide up
b   bend
r   release
+   palm mute

INTRO
e|-------------------------------------------------------|
B|-------------------------------------------------------|
G|-------------------------------------------------------|
D|-------------------------------------------------------|
a|-------------------------------------------------------|
E|---2-------------------------------------3--2--3-4-5---|
A|---2--3br-2\9-8~--3br-2/8-7~--3br-2\7-6~-3--2--3-4-5---|
                                                 + + +

e|---------------------------------------------------------|
B|---------------------------------------------------------|
G|---------------------------------------------------------|when you repeat
D|---------------------------------------------------------|back from the end
a|---------------------------------------------------------|of the verse skip
E|--2-------------------------------------3--2--2-2-2-2-0--|this measure
A|--2--3br-2\9-8~--3br-2/8-7~--3br-2\7-6~-3--2--2-2-2-2-0--|
                                                + + + +

e|------------------------------------------------------|
B|------------------------------------------------------|
G|------------------------------------------------------|same as above, when
D|------------------------------------------------------|you repeat back from
a|------------------------------------------------------|the verse skip this
E|--2-------------------------------------3--2--3-4-5---|    measure too
A|--2--3br-2\9-8~--3br-2/8-7~--3br-2\7-6~-3--2--3-4-5---|
                                                + + +


e|-------------------------------------------------------|
B|-------------------------------------------------------|
G|-------------------------------------------------------|when you repeat to
D|-------------------------------------------------------|the intro end with
a|-------------------------------------------------------|   THIS measure
E|--2-------------------------------------3--2--2-2-0-2--|
A|--2--3br-2\9-8~--3br-2/8-7~--3br-2\7-6~-3--2--2-2-0-2--|
                                                + + + +
verse
e|--------------------------------------------------------|
B|--------------------------------------------------------|
G|--------------------------------------------------------|
D|--------------------------------------------------------|
a|--------------------------------------------------------|
E|--2-0-2--2-0-2--2-0-2-3-2-0-2--2-0-2--2-0-2-------------|
A|--2-0-2--2-0-2--2-0-2-3-2-0-2--2-0-2--2-0-2\9~-8~-7~-5--|
    + + +  + + +  + + + + + + +  + + +  + + +

e|-------------------------------------------------------------|
B|-------------------------------------------------------------|
G|-------------------------------------------------------------|repeat this riff
D|-------------------------------------------------------------| 3 more times
a|-------------------------------------------------------------|then repeat intro
E|--2--2-0-2--2-0-2--2-0-2-3-2-0-2--2-0-2--2-0-2---------------|
A|--2--2-0-2--2-0-2--2-0-2-3-2-0-2--2-0-2--2-0-2\9~-8~-7~-5----|
    +  + + +  + + +  + + + + + + +  + + +  + + +
Tap to rate this tab
# A B C D E F G H I J K L M N O P Q R S T U V W X Y Z