Song name
# A B C D E F G H I J K L M N O P Q R S T U V W X Y Z

Lamb Of God - Ruin tab

Song: Ruin
Artist: Lamb of God
Album: As The Palaces Burn

   Guitars I, II
E||-------------------------------------------------|
B||-------------------------------------------------|
G||-------------------------------------------------|
D||-------------------------------------------------|
A||-0-0-0-5---6-0-0-0-5---6-0-0-0-5---6-0-0-0-5---6-|
D||-0-0-0-5-0-6-0-0-0-5-0-6-0-0-0-5-0-6-0-0-0-5-0-6-|x4
PM|-x-x-x---x---x-x-x---x---x-x-x---x---x-x-x---x---|

   Guitars I, II
E||-------------------------------------------------|
B||-------------------------------------------------|
G||-------------------------------------------------|
D||-------------------------------------------------|
A||-------------------------------------------------|
D||-2-222-5-2-6-2-222-5-2-6-2-222-5-2-6-2-5-2-3-2-5-|x2
PM|-x-xxx---x---x-xxx---x---x-xxx---x---x---x---x---|

   Guitar I
E||-------------------------------------------------|
B||-------------------------------------------------|
G||-------------------------------------------------|
D||-------------------------------------------------|
A||-------------------------------------------------|
D||-2-222-5-2-6-2-222-5-2-6-2-222-5-2-6-2-5-2-3-2-5-|x2
PM|-x-xxx---x---x-xxx---x---x-xxx---x---x---x---x---|
 ||
 ||Guitar II
E||-------------------------------------------------|
B||-------------------------------------------------|
G||-------------------------------------------------|
D||-------------------------------------------------|
A||-------2---3-------2---3-------2---3---2---0---2-|
D||-2-222---2---2-222---2---2-222---2---2---2---2---|x2
PM|-x-xxx---x---x-xxx---x---x-xxx---x---x---x---x---|

   Guitars I, II
E||-------------------------------------------------|
B||-------------------------------------------------|
G||-------------------------------------------------|
D||-------------------------------------------------|
A||-0-0-0-5---6-0-0-0-5---6-0-0-0-5---6-0-0-0-5---6-|
D||-0-0-0-5-0-6-0-0-0-5-0-6-0-0-0-5-0-6-0-0-0-5-0-6-|x4
PM|-x-x-x---x---x-x-x---x---x-x-x---x---x-x-x---x---|

   Guitar I
E||------------------------------------------------------|
B||------------------------------------------------------|
G||------------------------------------------------------|
D||------------------------------------------8-7---6-5---|
A||----------------------------------------------9-----8-|
D||-0-0-0-12-0-13-0-0-0-00-0-0-0-0-0-12-0-13-------------|
PM|-x-x-x----x----x-x-x-xx-x-x-x-x-x----x----------------|

   Guitar I
E||----------------------------------------------------|
B||----------------------------------------------------|
G||----------------------------------------------------|
D||----------------------------------------------------|
A||----------------------------------6-----5-----------|
D||-0-0-0-12-0-13-0-0-0-00-0-0-0-6-7---7-6---6-5-0-3-6-|
PM|-x-x-x----x----x-x-x-xx-x-x-x-x-x---x-x---x-x-x-x-x-|

   Guitars I, II
E||------------------------------------------------------|
B||------------------------------------------------------|
G||------------------------------------------------------|
D||------------------------------------------8-7---6-5---|
A||----------------------------------------------9-----8-|
D||-0-0-0-12-0-13-0-0-0-00-0-0-0-0-0-12-0-13-------------|
PM|-x-x-x----x----x-x-x-xx-x-x-x-x-x----x----------------|

   Guitars I, II
E||----------------------------------------------------|
B||----------------------------------------------------|
G||----------------------------------------------------|
D||----------------------------------------------------|
A||--------------------------------3-3/6-6-6\5-5-3/5-5-|
D||-0-0-0-12-0-13-0-0-0-00-0-0-0h3-3-3/6-6-6\5-5-3/5-5-|
PM|-x-x-x----x----x-x-x-xx-x-x-------------------------|

   Guitar I
E||------------------------------------------------------|
B||------------------------------------------------------|
G||------------------------------------------------------|
D||------------------------------------------8-7---6-5---|
A||----------------------------------------------9-----8-|
D||-0-0-0-12-0-13-0-0-0-00-0-0-0-0-0-12-0-13-------------|
PM|-x-x-x----x----x-x-x-xx-x-x-x-x-x----x----------------|
 ||
 ||Guitar II
E||----------------------------------------------------|
B||----------------------------------------------------|
G||----------------------------------------------------|
D||-------7---8--------------------7---8-10-9----9-8---|
A||-------------------------------------------10-----7-|
D||-0-0-0---0---0-0-0-00-0-0-0-0-0---0-----------------|
PM|-x-x-x---x---x-x-x-xx-x-x-x-x-x---x-----------------|

   Guitar I
E||----------------------------------------------------|
B||----------------------------------------------------|
G||----------------------------------------------------|
D||----------------------------------------------------|
A||----------------------------------6-----5-----------|
D||-0-0-0-12-0-13-0-0-0-00-0-0-0-6-7---7-6---6-5-0-3-6-|
PM|-x-x-x----x----x-x-x-xx-x-x-x-x-x---x-x---x-x-x-x-x-|
 ||
 ||Guitar II
E||--------------------------------------------------|
B||--------------------------------------------------|
G||--------------------------------------------------|
D||-------7---8--------------------------------------|
A||--------------------------------6-----5-----------|
D||-0-0-0---0---0-0-0-00-0-0-0-6-7---7-6---6-5-0-3-6-|
PM|-x-x-x---x---x-x-x-xx-x-x-x-x-x---x-x---x-x-x-x-x-|

   Guitar I
E||------------------------------------------------------|
B||------------------------------------------------------|
G||------------------------------------------------------|
D||------------------------------------------8-7---6-5---|
A||----------------------------------------------9-----8-|
D||-0-0-0-12-0-13-0-0-0-00-0-0-0-0-0-12-0-13-------------|
PM|-x-x-x----x----x-x-x-xx-x-x-x-x-x----x----------------|
 ||
 ||Guitar II
E||----------------------------------------------------|
B||----------------------------------------------------|
G||----------------------------------------------------|
D||-------7---8--------------------7---8-10-9----9-8---|
A||-------------------------------------------10-----7-|
D||-0-0-0---0---0-0-0-00-0-0-0-0-0---0-----------------|
PM|-x-x-x---x---x-x-x-xx-x-x-x-x-x---x-----------------|

   Guitar I
E||----------------------------------------------------|
B||----------------------------------------------------|
G||----------------------------------------------------|
D||----------------------------------------------------|
A||--------------------------------3-3/6-6-6\5-5-3/5-5-|
D||-0-0-0-12-0-13-0-0-0-00-0-0-0h3-3-3/6-6-6\5-5-3/5-5-|
PM|-x-x-x----x----x-x-x-xx-x-x-------------------------|
 ||
 ||Guitar II
E||--------------------------------------------------|
B||--------------------------------------------------|
G||--------------------------------------------------|
D||-------7---8--------------------------------------|
A||------------------------------3-3/6-6-6\5-5-3/5-5-|
D||-0-0-0---0---0-0-0-00-0-0-0h3-3-3/6-6-6\5-5-3/5-5-|
PM|-x-x-x---x---x-x-x-xx-x-x-------------------------|

   Guitar I
E||-------------------------------------------------------------------------------------|
B||-------------------------------------------------------------------------------------|
G||-------------------------------------------------------------------------------------|
D||------------------------------------------------------------------------------88\777-|
A||---------555---------666-------5566663333---------555---------666-------556666-------|
D||-0-0-0-0-----0-0-0-0-----0-0-0------------0-0-0-0-----0-0-0-0-----0-0-0--------------|x4
PM|-x-x-x-x-----x-x-x-x-----x-x-x------------x-x-x-x-----x-x-x-x-----x-x-x--------------|
 ||
 ||Guitar II
E||-------------------------------------------------------------------------------------|
B||-------------------------------------------------------------------------------------|
G||------------------------------------------------------------------------------33\222-|
D||---------333---------555-------335555-------------333---------555-------335555-------|
A||-------------------------------------6666--------------------------------------------|
D||-0-0-0-0-----0-0-0-0-----0-0-0------------0-0-0-0-----0-0-0-0-----0-0-0--------------|x4
PM|-x-x-x-x-----x-x-x-x-----x-x-x------------x-x-x-x-----x-x-x-x-----x-x-x--------------|

   Guitar I
E||---------------------------------------------------------------------------------------------|
B||---------------------------------------------------------------------------------------------|
G||---------------------------------------------------------------------------------------------|
D||-0~--------------------------------------------0~--------------------------------------------|
A||-0~--------------------------------------------0~--------------------------------------------|
D||-0~--0-0-0-1p0-0-0-0-0-4p0-3p0-0-0-0-3-5-0-3-6-0~--0-0-0-1p0-0-0-0-0-4p0-3p0-0-0-0-3-5-0-3-6-|
 ||
 ||Guitar II
E||---------------------------------------------------------------------------------------------|
B||---------------------------------------------------------------------------------------------|
G||-9~-------------------------------------------(9)--------------------------------------------|
D||-7~-------------------------------------------(7)--------------------------------------------|
A||-5~-------------------------------------------(5)--------------------------------------------|
D||-0~-------------------------------------------(0)--------------------------------------------|

   Guitar I
E||---------------------------------------------------------------------------------------------|
B||---------------------------------------------------------------------------------------------|
G||---------------------------------------------------------------------------------------------|
D||-0~--------------------------------------------0~--------------------------------------------|
A||-0~--------------------------------------------0~--------------------------------------------|
D||-0~--0-0-0-1p0-0-0-0-0-4p0-3p0-0-0-0-3-5-0-3-6-0~--0-0-0-1p0-0-0-0-0-4p0-3p0-0-0-0-3-5-0-3-6-|
 ||
 ||Guitar II
E||---------------------------------------------------------------------------------------------|
B||---------------------------------------------------------------------------------------------|
G||-10~-----------------------------------------(10)--------------------------------------------|
D||--8~------------------------------------------(8)--------------------------------------------|
A||--6~------------------------------------------(6)--------------------------------------------|
D||---------------------------------------------------------------------------------------------|

   Guitars I, II
E||------------------------------------------------------|
B||------------------------------------------------------|
G||------------------------------------------------------|
D||------------------------------------------8-7---6-5---|
A||----------------------------------------------9-----8-|
D||-0-0-0-12-0-13-0-0-0-00-0-0-0-0-0-12-0-13-------------|
PM|-x-x-x----x----x-x-x-xx-x-x-x-x-x----x----------------|

   Guitars I, II
E||----------------------------------------------------|
B||----------------------------------------------------|
G||----------------------------------------------------|
D||----------------------------------------------------|
A||----------------------------------6-----5-----------|
D||-0-0-0-12-0-13-0-0-0-00-0-0-0-6-7---7-6---6-5-0-3-6-|
PM|-x-x-x----x----x-x-x-xx-x-x-x-x-x---x-x---x-x-x-x-x-|

   Guitars I, II
E||------------------------------------------------------|
B||------------------------------------------------------|
G||------------------------------------------------------|
D||------------------------------------------8-7---6-5---|
A||----------------------------------------------9-----8-|
D||-0-0-0-12-0-13-0-0-0-00-0-0-0-0-0-12-0-13-------------|
PM|-x-x-x----x----x-x-x-xx-x-x-x-x-x----x----------------|

   Guitars I, II
E||----------------------------------------------------|
B||----------------------------------------------------|
G||----------------------------------------------------|
D||----------------------------------------------------|
A||--------------------------------3-3/6-6-6\5-5-3/5-5-|
D||-0-0-0-12-0-13-0-0-0-00-0-0-0h3-3-3/6-6-6\5-5-3/5-5-|
PM|-x-x-x----x----x-x-x-xx-x-x-------------------------|

   Guitar III (SOLO)
E||-12b--(r12)~----------------------------------------------|
B||-------------------------------7-8p7----------10br~--7br~-|
G||---------------7br-----------8-------9-8----8-------------|
D||-------------------------7-9-------------10---------------|
A||--------------------7910----------------------------------|
D||----------------------------------------------------------|
PM|--------------------xx-x------------------x---------------|
 ||
 ||Guitars I, II
E||-------------------------------------------------|
B||-------------------------------------------------|
G||-------------------------------------------------|
D||-------------------------------------------------|
A||-------------------------------------------------|
D||-2-222-5-2-6-2-222-5-2-6-2-222-5-2-6-2-5-2-3-2-5-|x2
PM|-x-xxx---x---x-xxx---x---x-xxx---x---x---x---x---|

   Guitar III (SOLO)
E||-19-15----15-19-15-20-15-19-15-17-15-|-17-14----14-17-14-19-14-17-14-15-14-|
B||-------17----------------------------|-------17----------------------------|
G||-------------------------------------|-------------------------------------|
D||-------------------------------------|-------------------------------------|
A||-------------------------------------|-------------------------------------|
D||-------------------------------------|-------------------------------------|
 ||
 ||Guitar I
E||-------------------------------------------------|
B||-------------------------------------------------|
G||-------------------------------------------------|
D||-------------------------------------------------|
A||-------------------------------------------------|
D||-2-222-5-2-6-2-222-5-2-6-2-222-5-2-6-2-5-2-3-2-5-|
PM|-x-xxx---x---x-xxx---x---x-xxx---x---x---x---x---|
 ||
 ||Guitar II
E||-------------------------------------------------|
B||-------------------------------------------------|
G||-------------------------------------------------|
D||-------------------------------------------------|
A||-------2---3-------2---3-------2---3---2---0---2-|
D||-2-222---2---2-222---2---2-222---2---2---2---2---|
PM|-x-xxx---x---x-xxx---x---x-xxx---x---x---x---x---|

   Guitar III (SOLO)
E||-17-14----14-17-14-19-14-17-14-15-14-|-15-14----14-----------------------------------------------------|
B||-------15------------------------------------17----17-15-17-15-13-15-13-12-15~~~L~E~T~~~R~I~N~G~~~~~~~~|
G||-------------------------------------------------------------------------------------------------------|
D||-------------------------------------------------------------------------------------------------------|
A||-------------------------------------------------------------------------------------------------------|
D||-------------------------------------------------------------------------------------------------------|
PM|-------------------------------------------------------------------------------------------------------|
 ||
 ||Guitar I
E||-------------------------------------------------|
B||-------------------------------------------------|
G||-------------------------------------------------|
D||-------------------------------------------------|
A||-------------------------------------------------|
D||-2-222-5-2-6-2-222-5-2-6-2-222-5-2-6-2-5-2-3-2-5-|
PM|-x-xxx---x---x-xxx---x---x-xxx---x---x---x---x---|
 ||
 ||Guitar II
E||-------------------------------------------------|
B||-------------------------------------------------|
G||-------------------------------------------------|
D||-------------------------------------------------|
A||-------2---3-------2---3-------2---3---2---0---2-|
D||-2-222---2---2-222---2---2-222---2---2---2---2---|
PM|-x-xxx---x---x-xxx---x---x-xxx---x---x---x---x---|

   Guitar I
E||-------------------------------------------------------------------------------------|
B||-------------------------------------------------------------------------------------|
G||-------------------------------------------------------------------------------------|
D||------------------------------------------------------------------------------88\777-|
A||---------555---------666-------5566663333---------555---------666-------556666-------|
D||-0-0-0-0-----0-0-0-0-----0-0-0------------0-0-0-0-----0-0-0-0-----0-0-0--------------|x2
PM|-x-x-x-x-----x-x-x-x-----x-x-x------------x-x-x-x-----x-x-x-x-----x-x-x--------------|
 ||
 ||Guitar II
E||-------------------------------------------------------------------------------------|
B||-------------------------------------------------------------------------------------|
G||------------------------------------------------------------------------------33\222-|
D||---------333---------555-------335555-------------333---------555-------335555-------|
A||-------------------------------------6666--------------------------------------------|
D||-0-0-0-0-----0-0-0-0-----0-0-0------------0-0-0-0-----0-0-0-0-----0-0-0--------------|x2
PM|-x-x-x-x-----x-x-x-x-----x-x-x------------x-x-x-x-----x-x-x-x-----x-x-x--------------|

>DRUM FILL<

   Guitars I, II
E||----------------------------------------------------|
B||----------------------------------------------------|
G||----------------------------------------------------|
D||----------------------------------------------------|
A||----------------6666/101010----------------6666\333-|
D||-0-0-0000-0-0-00------------0-0-0000-0-0-00---------|x4
PM|-x-x-xxxx-x-x-xx------------x-x-xxxx-x-x-xx---------|

   Guitar I
E||------------------------------------------------------|
B||------------------------------------------------------|
G||------------------------------------------------------|
D||------------------------------------------------------|
A||----------------66666/101010----------------66666\333-|x2
D||-0-0-0000-0-0-00-------------0-0-0000-0-0-00----------|
 ||
 ||Guitar II
E||---------------------------------------------------|
B||---------------------------------------------------|
G||---------------------------------------------------|
D||----------------88888\555----------------88888\222-|
A||---------------------------------------------------|x2
D||-0-0-0000-0-0-00----------0-0-0000-0-0-00----------|

   Guitar I
E||-----------------------------------------------------------------------------------|
B||-----------------------------------------------------------------------------------|
G||-----------------------------------------------------------------------------------|
D||-----------------------------------------------------------------------------------|
A||-0--0--0-----0--0-----0--0--5h6-6-6/10-10--0--0--0-----0--0-----0--0--5h6-6-6\3-3--|
D||-0--0--0-----0--0-----0--0-----------------0--0--0-----0--0-----0--0---------------|x3
PM|-x--x--x-----x--x-----x--x-----------------x--x--x-----x--x-----x--x---------------|
 ||
 ||Guitar II
E||---------------------------------------------------------------------------------|
B||---------------------------------------------------------------------------------|
G||---------------------------------------------------------------------------------|
D||----------------------------7h8-8-8\5-5-----------------------------7h8-8-8\2-2--|
A||-0--0--0-----0--0-----0--0---------------0--0--0-----0--0-----0--0---------------|
D||-0--0--0-----0--0-----0--0---------------0--0--0-----0--0-----0--0---------------|x3
PM|-x--x--x-----x--x-----x--x---------------x--x--x-----x--x-----x--x---------------|

   Guitar I
E||--------------------------------------------------------------------------------------------------|
B||--------------------------------------------------------------------------------------------------|
G||--------------------------------------------------------------------------------------------------|
D||--------------------------------------------------------------------------------------------------|
A||-0--0--0-----0--0-----0--0--5h6-6-6/10-10--0--0--0-----0--0-----0--0--5h6-6-6\3-3--0--0---0-------|
D||-0--0--0-----0--0-----0--0-----------------0--0--0-----0--0-----0--0---------------0--0---0-----0-|
PM|-x--x--x-----x--x-----x--x-----------------x--x--x-----x--x-----x--x---------------x--x---x-----x-|
 ||
 ||Guitar II
E||-----------------------------------------------------------------------------------------------|
B||-----------------------------------------------------------------------------------------------|
G||-----------------------------------------------------------------------------------------------|
D||----------------------------7h8-8-8\5-5-----------------------------7h8-8-8\2-2----------------|
A||-0--0--0-----0--0-----0--0---------------0--0--0-----0--0-----0--0--------------0--0---0-------|
D||-0--0--0-----0--0-----0--0---------------0--0--0-----0--0-----0--0--------------0--0---0-----0-|
PM|-x--x--x-----x--x-----x--x---------------x--x--x-----x--x-----x--x--------------x--x---x-----x-|
Tap to rate this tab
 
# A B C D E F G H I J K L M N O P Q R S T U V W X Y Z