Song name
# A B C D E F G H I J K L M N O P Q R S T U V W X Y Z

Lamb Of God - Laid To Rest tab

                                 Laid To Rest                                   


                                                                     Lamb of God
Mark Morton



                              PM PM PM          PM PM PM           
                              |--3--|  |--3--|  |--3--|  |--3--|   
     Q    Q    Q     Q        E  E  E  E  E  E  E  E  E  E  E  E   
E||------------------------|--------------------------------------|
B||------------------------|--------------------------------------|
G||------------------------|--------------------------------------|
D||------------------------|-----------------------------3--------|
A||-----------------10\----|-----------6--5--3--------------5--6--|
D||-----------------10\----|--0--0--0-----------0--0--0-----------|


  PM PM PM                                 PM PM PM          PM PM PM           
  |--3--|  |--3--|   |--3--|   |--3--|     |--3--|  |-3-|    |--3--|  |--3--|   
  E  E  E  E  E  E   E  E  E   E  E  E     E  E  E  S S S E  E  E  E  E  E  E   
----------------------------------------|--------------------------------------|
----------------------------------------|--------------------------------------|
----------------------------------------|--------------------------------------|
----------------------------------------|-----------4-5-4-------------8--7--5--|
----------------------------------------|-----------------5--------------------|
--0--0--0--8--5--4S--7--8--7--10--7--8--|--0--0--0-----------0--0--0-----------|


  |-3-|    |--3--|  |--3--|  |--3--|   
  S S S E  E  E  E  E  E  E  E  E  E   
--------------------------------------|
--------------------------------------|
--------------------------------------|
--4-5-4----4--------------------------|
--------6-----5--6--3--5-----3--------|
--------------------------6-----5--6--|


    PM PM PM PM   PH       PM PM PM   PH     
    |--3--|  |----|     |--3--|  |----|      
    E  E  E  E    Q     E  E  E  E    Q      
|-------------------------------------------|
|-------------------------------------------|
|*------------------------------------------|
|*------------------------------------------|
|---2--2--2--2----------2--2--2--2----------|
|---2--2--2--2--<>3b----2--2--2--2--<>3b----|


       PM PM    PM PM                 
  |--3-|  |--3--|  |--3--|  |--3--|   
  Q    E  E  E  E  E  E  E  E  E  E   
-------------------------------------|
-------------------------------------|
-------------------------------------|
-------------------------------------|
-------2--2-----2--2-----------------|
-------2--2-----2--2--3--2--5--4--3--|


  PM PM PM PM   PH       PM PM PM   PH     
  |--3--|  |----|     |--3--|  |----|      
  E  E  E  E    Q     E  E  E  E    Q      
------------------------------------------|
------------------------------------------|
------------------------------------------|
------------------------------------------|
--2--2--2--2----------2--2--2--2----------|
--2--2--2--2--<>3b----2--2--2--2--<>3b----|


       PM PM    PM PM                 
  |--3-|  |--3--|  |--3--|  |--3--|   
  Q    E  E  E  E  E  E  E  E  E  E   
-------------------------------------|
-------------------------------------|
-------------------------------------|
-------------------------------------|
-------2--2-----2--2-----------------|
-------2--2-----2--2--3--2--5--4--3--|


  PM PM PM PM   PH       PM PM PM   PH     
  |--3--|  |----|     |--3--|  |----|      
  E  E  E  E    Q     E  E  E  E    Q      
------------------------------------------|
------------------------------------------|
------------------------------------------|
------------------------------------------|
--2--2--2--2----------2--2--2--2----------|
--2--2--2--2--<>3b----2--2--2--2--<>3b----|


       PM PM    PM PM                 
  |--3-|  |--3--|  |--3--|  |--3--|   
  Q    E  E  E  E  E  E  E  E  E  E   
-------------------------------------|
-------------------------------------|
-------------------------------------|
-------------------------------------|
-------2--2-----2--2-----------------|
-------2--2-----2--2--3--2--5--4--3--|


  PM PM PM PM   PH       PM PM PM   PH     
  |--3--|  |----|     |--3--|  |----|      
  E  E  E  E    Q     E  E  E  E    Q      
------------------------------------------|
------------------------------------------|
------------------------------------------|
------------------------------------------|
--2--2--2--2----------2--2--2--2----------|
--2--2--2--2--<>3b----2--2--2--2--<>3b----|


       PM PM    PM PM                     PM PM PM PM PM    PM PM PM PM PM     
  |--3-|  |--3--|  |--3--|  |--3--|       |--3--|  |--3--|  |--3--|  |--3--|   
  Q    E  E  E  E  E  E  E  E  E  E       E  E  E  E  E  E  E  E  E  E  E  E   
-------------------------------------||---------------------------------------|
-------------------------------------||---------------------------------------|
-------------------------------------||*--------------------------------------|
-------------------------------------||*--------------------------------------|
-------2--2-----2--2-----------------||---------------------------------------|
-------2--2-----2--2--3--2--3--2--1--||---0--0--0--0--0-----0--0--0--0--0-----|


       PM PM    PM    PM PM PM PM       PM PM PM PM PM    PM PM PM PM PM     
  |--3-|  |--3--|  |--3--|  |--3--|     |--3--|  |--3--|  |--3--|  |--3--|   
  Q    E  E  E  E  E  E  E  E  E  E     E  E  E  E  E  E  E  E  E  E  E  E   
-------------------------------------|--------------------------------------|
-------------------------------------|--------------------------------------|
-------------------------------------|--------------------------------------|
-------------------------------------|--------------------------------------|
-------------------------------------|--------------------------------------|
-------0--0-----0-----0--0--0--0-----|--0--0--0--0--0-----0--0--0--0--0-----|


       PM PM    PM    PM PM PM PM       
  |--3-|  |--3--|  |--3--|  |--3--|     
  Q    E  E  E  E  E  E  E  E  E  E     
--------------------------------------||
--------------------------------------||
-------------------------------------*||
-------------------------------------*||
--------------------------------------||
-------0--0-----0-----0--0--0--0------||


                PH       PM PM PM   PH     
  |--3--|  |----|     |--3--|  |----|      
  E  E  E  E    Q     E  E  E  E    Q      
------------------------------------------|
------------------------------------------|
------------------------------------------|
------------------------------------------|
--2--2--2--2----------2--2--2--2----------|
--2--2--2--2--<>3b----2--2--2--2--<>3b----|


       PM PM    PM PM                 
  |--3-|  |--3--|  |--3--|  |--3--|   
  Q    E  E  E  E  E  E  E  E  E  E   
-------------------------------------|
-------------------------------------|
-------------------------------------|
-------------------------------------|
-------2--2-----2--2-----------------|
-------2--2-----2--2--3--2--5--4--3--|


                PH       PM PM PM   PH     
  |--3--|  |----|     |--3--|  |----|      
  E  E  E  E    Q     E  E  E  E    Q      
------------------------------------------|
------------------------------------------|
------------------------------------------|
------------------------------------------|
--2--2--2--2----------2--2--2--2----------|
--2--2--2--2--<>3b----2--2--2--2--<>3b----|


       PM PM    PM PM                   PM PM PM          PM PM PM           
  |--3-|  |--3--|  |--3--|  |--3--|     |--3--|  |--3--|  |--3--|  |--3--|   
  Q    E  E  E  E  E  E  E  E  E  E     E  E  E  E  E  E  E  E  E  E  E  E   
-------------------------------------|--------------------------------------|
-------------------------------------|--------------------------------------|
-------------------------------------|--------------------------------------|
-------------------------------------|-----------------------------3--------|
-------2--2-----2--2-----------------|-----------6--5--3--------------5--6--|
-------2--2-----2--2--3--2--3--2--1--|--0--0--0-----------0--0--0-----------|


  PM PM PM                                 PM PM PM          PM PM PM           
  |--3--|  |--3--|   |--3--|   |--3--|     |--3--|  |-3-|    |--3--|  |--3--|   
  E  E  E  E  E  E   E  E  E   E  E  E     E  E  E  S S S E  E  E  E  E  E  E   
----------------------------------------|--------------------------------------|
----------------------------------------|--------------------------------------|
----------------------------------------|--------------------------------------|
----------------------------------------|-----------4-5-4-------------8--7--5--|
----------------------------------------|-----------------6--------------------|
--0--0--0--8--5--4S--7--8--7--10--7--8--|--0--0--0-----------0--0--0-----------|


                                         PM PM PM          PM PM PM           
  |-3-|    |--3--|  |--3--|  |--3--|     |--3--|  |--3--|  |--3--|  |--3--|   
  S S S E  E  E  E  E  E  E  E  E  E     E  E  E  E  E  E  E  E  E  E  E  E   
--------------------------------------|--------------------------------------|
--------------------------------------|--------------------------------------|
--------------------------------------|--------------------------------------|
--4-5-4----4--------------------------|-----------------------------3--------|
--------6-----5--6--3--5-----3--------|-----------6--5--3--------------5--6--|
--------------------------6-----5--6--|--0--0--0-----------0--0--0-----------|


  PM PM PM                                 PM PM PM          PM PM PM           
  |--3--|  |--3--|   |--3--|   |--3--|     |--3--|  |-3-|    |--3--|  |--3--|   
  E  E  E  E  E  E   E  E  E   E  E  E     E  E  E  S S S E  E  E  E  E  E  E   
----------------------------------------|--------------------------------------|
----------------------------------------|--------------------------------------|
----------------------------------------|--------------------------------------|
----------------------------------------|-----------4-5-4-------------8--7--5--|
----------------------------------------|-----------------6--------------------|
--0--0--0--8--5--4S--7--8--7--10--7--8--|--0--0--0-----------0--0--0-----------|


                                         PM PM PM          PM PM PM           
  |-3-|    |--3--|  |--3--|  |--3--|     |--3--|  |--3--|  |--3--|  |--3--|   
  S S S E  E  E  E  E  E  E  E  E  E     E  E  E  E  E  E  E  E  E  E  E  E   
--------------------------------------|--------------------------------------|
--------------------------------------|--------------------------------------|
--------------------------------------|--------------------------------------|
--4-5-4----4--------------------------|-----------------------------3--------|
--------6-----5--6--3--5-----3--------|-----------6--5--3--------------5--6--|
--------------------------6-----5--6--|--0--0--0-----------0--0--0-----------|


  PM PM PM                                 PM PM PM          PM PM PM           
  |--3--|  |--3--|   |--3--|   |--3--|     |--3--|  |-3-|    |--3--|  |--3--|   
  E  E  E  E  E  E   E  E  E   E  E  E     E  E  E  S S S E  E  E  E  E  E  E   
----------------------------------------|--------------------------------------|
----------------------------------------|--------------------------------------|
----------------------------------------|--------------------------------------|
----------------------------------------|-----------4-5-4-------------8--7--5--|
----------------------------------------|-----------------6--------------------|
--0--0--0--8--5--4S--7--8--7--10--7--8--|--0--0--0-----------0--0--0-----------|


                                         PM PM PM          PM PM PM           
  |-3-|    |--3--|  |--3--|  |--3--|     |--3--|  |--3--|  |--3--|  |--3--|   
  S S S E  E  E  E  E  E  E  E  E  E     E  E  E  E  E  E  E  E  E  E  E  E   
--------------------------------------|--------------------------------------|
--------------------------------------|--------------------------------------|
--------------------------------------|--------------------------------------|
--4-5-4----4--------------------------|-----------------------------3--------|
--------6-----5--6--3--5-----3--------|-----------6--5--3--------------5--6--|
--------------------------6-----5--6--|--0--0--0-----------0--0--0-----------|


  PM PM PM                                 PM PM PM          PM PM PM           
  |--3--|  |--3--|   |--3--|   |--3--|     |--3--|  |-3-|    |--3--|  |--3--|   
  E  E  E  E  E  E   E  E  E   E  E  E     E  E  E  S S S E  E  E  E  E  E  E   
----------------------------------------|--------------------------------------|
----------------------------------------|--------------------------------------|
----------------------------------------|--------------------------------------|
----------------------------------------|-----------4-5-4-------------8--7--5--|
----------------------------------------|-----------------6--------------------|
--0--0--0--8--5--4S--7--8--7--10--7--8--|--0--0--0-----------0--0--0-----------|


  |-3-|    |--3--|  |--3--|  |--3--|     |--3-|  |--3--|  |--3-|  |--3--|   
  S S S E  E  E  E  E  E  E  E  E  E     Q    E  E  E  E  Q    E  E  E  E   
--------------------------------------|------------------------------------|
--------------------------------------|------------------------------------|
--------------------------------------|------------------------------------|
--4-5-4----4--------------------------|------------------------------------|
--------6-----5--6--3--5-----3--------|------------------------------------|
--------------------------6-----5--6--|--0----0--6--3--5--0----0--1--3--1--|


                   PM PM PM   PH                                               
  |--3-|  |--3--|  |--3--|    |---3---|     |--3-|  |--3--|  |--3-|  |--3--|   
  Q    E  E  E  E  E  E  E    E    E  E     Q    E  E  E  E  Q    E  E  E  E   
-----------------------------------------|------------------------------------|
-----------------------------------------|------------------------------------|
-----------------------------------------|------------------------------------|
-----------------------------------------|------------------------------------|
-----------------------------------------|------------------------------------|
--0----0--6--3--5--0--1--3--<>5br--L--3--|--0----0--6--3--5--0----0--1--3--1--|


                   PM PM PM   SH          
  |--3-|  |--3--|  |--3--|    |---3---|   
  Q    E  E  E  E  E  E  E    E    E  E   
-----------------------------------------|
-----------------------------------------|
-----------------------------------------|
-----------------------------------------|
-----------------------------------------|
--0----0--6--3--5--0--1--3--<>5br--L--3--|


  PM PM PM          PM PM PM           
  |--3--|  |--3--|  |--3--|  |--3--|   
  E  E  E  E  E  E  E  E  E  E  E  E   
--------------------------------------|
--------------------------------------|
--------------------------------------|
--------------------------------------|
--------------------------------------|
--0--0--0--6--3--5--0--0--0--1--3--1--|


  PM PM PM          PM PM PM   SH          
  |--3--|  |--3--|  |--3--|    |---3---|   
  E  E  E  E  E  E  E  E  E    E    E  E   
------------------------------------------|
------------------------------------------|
------------------------------------------|
------------------------------------------|
------------------------------------------|
--0--0--0--6--3--5--0--1--3--<>5br--L--3--|


  PM PM PM          PM PM PM           
  |--3--|  |--3--|  |--3--|  |--3--|   
  E  E  E  E  E  E  E  E  E  E  E  E   
--------------------------------------|
--------------------------------------|
--------------------------------------|
--------------------------------------|
--------------------------------------|
--0--0--0--6--3--5--0--0--0--1--3--1--|


  PM PM PM          PM PM PM   SH          
  |--3--|  |--3--|  |--3--|    |---3---|   
  E  E  E  E  E  E  E  E  E    E    E  E   
------------------------------------------|
------------------------------------------|
------------------------------------------|
------------------------------------------|
------------------------------------------|
--0--0--0--6--3--5--0--1--3--<>5br--L--3--|


                PH       PM PM PM   PH     
  |--3--|  |----|     |--3--|  |----|      
  E  E  E  E    Q     E  E  E  E    Q      
------------------------------------------|
------------------------------------------|
------------------------------------------|
------------------------------------------|
--2--2--2--2----------2--2--2--2----------|
--2--2--2--2--<>3b----2--2--2--2--<>3b----|


       PM PM    PM PM                 
  |--3-|  |--3--|  |--3--|  |--3--|   
  Q    E  E  E  E  E  E  E  E  E  E   
-------------------------------------|
-------------------------------------|
-------------------------------------|
-------------------------------------|
-------2--2-----2--2-----------------|
-------2--2-----2--2--3--2--5--4--3--|


                PH       PM PM PM   PH     
  |--3--|  |----|     |--3--|  |----|      
  E  E  E  E    Q     E  E  E  E    Q      
------------------------------------------|
------------------------------------------|
------------------------------------------|
------------------------------------------|
--2--2--2--2----------2--2--2--2----------|
--2--2--2--2--<>3b----2--2--2--2--<>3b----|


       PM PM    PM PM                   PM PM PM          PM PM PM           
  |--3-|  |--3--|  |--3--|  |--3--|     |--3--|  |--3--|  |--3--|  |--3--|   
  Q    E  E  E  E  E  E  E  E  E  E     E  E  E  E  E  E  E  E  E  E  E  E   
-------------------------------------|--------------------------------------|
-------------------------------------|--------------------------------------|
-------------------------------------|--------------------------------------|
-------------------------------------|-----------------------------3--------|
-------2--2-----2--2-----------------|-----------6--5--3--------------5--6--|
-------2--2-----2--2--3--2--3--2--1--|--0--0--0-----------0--0--0-----------|


  PM PM PM                                 PM PM PM          PM PM PM           
  |--3--|  |--3--|   |--3--|   |--3--|     |--3--|  |-3-|    |--3--|  |--3--|   
  E  E  E  E  E  E   E  E  E   E  E  E     E  E  E  S S S E  E  E  E  E  E  E   
----------------------------------------|--------------------------------------|
----------------------------------------|--------------------------------------|
----------------------------------------|--------------------------------------|
----------------------------------------|-----------4-5-4-------------8--7--5--|
----------------------------------------|-----------------6--------------------|
--0--0--0--8--5--4S--7--8--7--10--7--8--|--0--0--0-----------0--0--0-----------|


                                         PM PM PM          PM PM PM           
  |-3-|    |--3--|  |--3--|  |--3--|     |--3--|  |--3--|  |--3--|  |--3--|   
  S S S E  E  E  E  E  E  E  E  E  E     E  E  E  E  E  E  E  E  E  E  E  E   
--------------------------------------|--------------------------------------|
--------------------------------------|--------------------------------------|
--------------------------------------|--------------------------------------|
--4-5-4----4--------------------------|-----------------------------3--------|
--------6-----5--6--3--5-----3--------|-----------6--5--3--------------5--6--|
--------------------------6-----5--6--|--0--0--0-----------0--0--0-----------|


  PM PM PM                                 PM PM PM          PM PM PM           
  |--3--|  |--3--|   |--3--|   |--3--|     |--3--|  |-3-|    |--3--|  |--3--|   
  E  E  E  E  E  E   E  E  E   E  E  E     E  E  E  S S S E  E  E  E  E  E  E   
----------------------------------------|--------------------------------------|
----------------------------------------|--------------------------------------|
----------------------------------------|--------------------------------------|
----------------------------------------|-----------4-5-4-------------8--7--5--|
----------------------------------------|-----------------6--------------------|
--0--0--0--8--5--4S--7--8--7--10--7--8--|--0--0--0-----------0--0--0-----------|


                                         PM PM PM          PM PM PM           
  |-3-|    |--3--|  |--3--|  |--3--|     |--3--|  |--3--|  |--3--|  |--3--|   
  S S S E  E  E  E  E  E  E  E  E  E     E  E  E  E  E  E  E  E  E  E  E  E   
--------------------------------------|--------------------------------------|
--------------------------------------|--------------------------------------|
--------------------------------------|--------------------------------------|
--4-5-4----4--------------------------|-----------------------------3--------|
--------6-----5--6--3--5-----3--------|-----------6--5--3--------------5--6--|
--------------------------6-----5--6--|--0--0--0-----------0--0--0-----------|


  PM PM PM                                 PM PM PM          PM PM PM           
  |--3--|  |--3--|   |--3--|   |--3--|     |--3--|  |-3-|    |--3--|  |--3--|   
  E  E  E  E  E  E   E  E  E   E  E  E     E  E  E  S S S E  E  E  E  E  E  E   
----------------------------------------|--------------------------------------|
----------------------------------------|--------------------------------------|
----------------------------------------|--------------------------------------|
----------------------------------------|-----------4-5-4-------------8--7--5--|
----------------------------------------|-----------------6--------------------|
--0--0--0--8--5--4S--7--8--7--10--7--8--|--0--0--0-----------0--0--0-----------|


                                         PM PM PM          PM PM PM           
  |-3-|    |--3--|  |--3--|  |--3--|     |--3--|  |--3--|  |--3--|  |--3--|   
  S S S E  E  E  E  E  E  E  E  E  E     E  E  E  E  E  E  E  E  E  E  E  E   
--------------------------------------|--------------------------------------|
--------------------------------------|--------------------------------------|
--------------------------------------|--------------------------------------|
--4-5-4----4--------------------------|-----------------------------3--------|
--------6-----5--6--3--5-----3--------|-----------6--5--3--------------5--6--|
--------------------------6-----5--6--|--0--0--0-----------0--0--0-----------|


  PM PM PM                                 PM PM PM          PM PM PM           
  |--3--|  |--3--|   |--3--|   |--3--|     |--3--|  |-3-|    |--3--|  |--3--|   
  E  E  E  E  E  E   E  E  E   E  E  E     E  E  E  S S S E  E  E  E  E  E  E   
----------------------------------------|--------------------------------------|
----------------------------------------|--------------------------------------|
----------------------------------------|--------------------------------------|
----------------------------------------|-----------4-5-4-------------8--7--5--|
----------------------------------------|-----------------6--------------------|
--0--0--0--8--5--4S--7--8--7--10--7--8--|--0--0--0-----------0--0--0-----------|


  |-3-|    |--3--|  |--3--|  |--3--|     |--3-|  |--3--|  |--3-|  |--3--|   
  S S S E  E  E  E  E  E  E  E  E  E     Q    E  E  E  E  Q    E  E  E  E   
--------------------------------------|------------------------------------|
--------------------------------------|------------------------------------|
--------------------------------------|------------------------------------|
--4-5-4----4--------------------------|------------------------------------|
--------6-----5--6--3--5-----3--------|------------------------------------|
--------------------------6-----5--6--|--0----0--6--3--5--0----0--1--3--1--|


                   PM PM PM   PH                                               
  |--3-|  |--3--|  |--3--|    |---3---|     |--3-|  |--3--|  |--3-|  |--3--|   
  Q    E  E  E  E  E  E  E    E    E  E     Q    E  E  E  E  Q    E  E  E  E   
-----------------------------------------|------------------------------------|
-----------------------------------------|------------------------------------|
-----------------------------------------|------------------------------------|
-----------------------------------------|------------------------------------|
-----------------------------------------|------------------------------------|
--0----0--6--3--5--0--1--3--<>5br--L--3--|--0----0--6--3--5--0----0--1--3--1--|


                   PM PM PM   SH          
  |--3-|  |--3--|  |--3--|    |---3---|   
  Q    E  E  E  E  E  E  E    E    E  E   
-----------------------------------------|
-----------------------------------------|
-----------------------------------------|
-----------------------------------------|
-----------------------------------------|
--0----0--6--3--5--0--1--3--<>5br--L--3--|


  PM PM PM          PM PM PM           
  |--3--|  |--3--|  |--3--|  |--3--|   
  E  E  E  E  E  E  E  E  E  E  E  E   
--------------------------------------|
--------------------------------------|
--------------------------------------|
--------------------------------------|
--------------------------------------|
--0--0--0--6--3--5--0--0--0--1--3--1--|


  PM PM PM          PM PM PM   SH          
  |--3--|  |--3--|  |--3--|    |---3---|   
  E  E  E  E  E  E  E  E  E    E    E  E   
------------------------------------------|
------------------------------------------|
------------------------------------------|
------------------------------------------|
------------------------------------------|
--0--0--0--6--3--5--0--1--3--<>5br--L--3--|


  PM PM PM          PM PM PM           
  |--3--|  |--3--|  |--3--|  |--3--|   
  E  E  E  E  E  E  E  E  E  E  E  E   
--------------------------------------|
--------------------------------------|
--------------------------------------|
--------------------------------------|
--------------------------------------|
--0--0--0--6--3--5--0--0--0--1--3--1--|


  PM PM PM          PM PM PM   SH          
  |--3--|  |--3--|  |--3--|    |---3---|   
  E  E  E  E  E  E  E  E  E    E    E  E   
------------------------------------------|
------------------------------------------|
------------------------------------------|
------------------------------------------|
------------------------------------------|
--0--0--0--6--3--5--0--1--3--<>5br--L--3--|


  PM PM PM PM PM    PM PM PM PM PM            PM PM    PM    PM PM PM PM     
  |--3--|  |--3--|  |--3--|  |--3--|     |--3-|  |--3--|  |--3--|  |--3--|   
  E  E  E  E  E  E  E  E  E  E  E  E     Q    E  E  E  E  E  E  E  E  E  E   
--------------------------------------|-------------------------------------|
--------------------------------------|-------------------------------------|
--------------------------------------|-------------------------------------|
--------------------------------------|-------------------------------------|
--------------------------------------|-------------------------------------|
--1--1--1--1--1-----1--1--1--1--1-----|-------1--1-----1-----1--1--1--1-----|


  PM PM PM PM PM    PM PM PM PM PM            PM PM    PM    PM PM            
  |--3--|  |--3--|  |--3--|  |--3--|     |--3-|  |--3--|  |--3--|             
  E  E  E  E  E  E  E  E  E  E  E  E     Q    E  E  E  E  E  E  E  Q    Q     
--------------------------------------|--------------------------------------|
--------------------------------------|--------------------------------------|
--------------------------------------|--------------------------------------|
--------------------------------------|--------------------------------------|
--------------------------------------|--------------------------------------|
--1--1--1--1--1-----1--1--1--1--1-----|-------1--1-----1-----1--1------------|


    PM PM PM PM PM    PM PM PM PM PM            PM PM    PM    PM PM PM PM     
    |--3--|  |--3--|  |--3--|  |--3--|     |--3-|  |--3--|  |--3--|  |--3--|   
    E  E  E  E  E  E  E  E  E  E  E  E     Q    E  E  E  E  E  E  E  E  E  E   
|---------------------------------------|-------------------------------------|
|---------------------------------------|-------------------------------------|
|*--------------------------------------|-------------------------------------|
|*--------------------------------------|-------------------------------------|
|---------------------------------------|-------------------------------------|
|---0--0--0--0--0-----0--0--0--0--0-----|-------0--0-----0-----0--0--0--0-----|


  PM PM PM PM PM    PM PM PM PM PM            PM PM    PM    PM PM PM PM       
  |--3--|  |--3--|  |--3--|  |--3--|     |--3-|  |--3--|  |--3--|  |--3--|     
  E  E  E  E  E  E  E  E  E  E  E  E     Q    E  E  E  E  E  E  E  E  E  E     
--------------------------------------|--------------------------------------||
--------------------------------------|--------------------------------------||
--------------------------------------|-------------------------------------*||
--------------------------------------|-------------------------------------*||
--------------------------------------|--------------------------------------||
--0--0--0--0--0-----0--0--0--0--0-----|-------0--0-----0-----0--0--0--0------||


  PM PM PM PM PM    PM PM PM PM PM            PM PM    PM    PM PM PM PM     
  |--3--|  |--3--|  |--3--|  |--3--|     |--3-|  |--3--|  |--3--|  |--3--|   
  E  E  E  E  E  E  E  E  E  E  E  E     Q    E  E  E  E  E  E  E  E  E  E   
--------------------------------------|-------------------------------------|
--------------------------------------|-------------------------------------|
--------------------------------------|-------------------------------------|
--------------------------------------|-------------------------------------|
--------------------------------------|-------------------------------------|
--0--0--0--0--0-----0--0--0--0--0-----|-------0--0-----0-----0--0--0--0-----|


  PM PM PM PM PM    PM PM PM PM PM            PM PM    PM    PM PM PM PM     
  |--3--|  |--3--|  |--3--|  |--3--|     |--3-|  |--3--|  |--3--|  |--3--|   
  E  E  E  E  E  E  E  E  E  E  E  E     Q    E  E  E  E  E  E  E  E  E  E   
--------------------------------------|-------------------------------------|
--------------------------------------|-------------------------------------|
--------------------------------------|-------------------------------------|
--------------------------------------|-------------------------------------|
--------------------------------------|-------------------------------------|
--0--0--0--0--0-----0--0--0--0--0-----|-------0--0-----0-----0--0--0--0-----|


  PM PM PM PM PM    PM PM PM PM PM            PM PM    PM    PM PM PM PM     
  |--3--|  |--3--|  |--3--|  |--3--|     |--3-|  |--3--|  |--3--|  |--3--|   
  E  E  E  E  E  E  E  E  E  E  E  E     Q    E  E  E  E  E  E  E  E  E  E   
--------------------------------------|-------------------------------------|
--------------------------------------|-------------------------------------|
--------------------------------------|-------------------------------------|
--------------------------------------|-------------------------------------|
--------------------------------------|-------------------------------------|
--0--0--0--0--0-----0--0--0--0--0-----|-------0--0-----0-----0--0--0--0-----|


  PM PM PM PM PM    PM PM PM PM PM       PM                     
  |--3--|  |--3--|  |--3--|  |--3--|                            
  E  E  E  E  E  E  E  E  E  E  E  E     Q    Q    Q     Q      
--------------------------------------|------------------------|
--------------------------------------|------------------------|
--------------------------------------|------------------------|
--------------------------------------|------------------------|
--------------------------------------|-----------------16\----|
--0--0--0--0--0-----0--0--0--0--0-----|--0--------------16\----|


                                                        PM PM PM   PH          
  |--3-|  |--3--|  |--3-|  |--3--|     |--3-|  |--3--|  |--3--|    |---3---|   
  Q    E  E  E  E  Q    E  E  E  E     Q    E  E  E  E  E  E  E    E    E  E   
------------------------------------|-----------------------------------------|
------------------------------------|-----------------------------------------|
------------------------------------|-----------------------------------------|
------------------------------------|-----------------------------------------|
------------------------------------|-----------------------------------------|
--0----0--6--3--5--0----0--1--3--1--|--0----0--6--3--5--0--1--3--<>5br--L--3--|


                                                        PM PM PM   SH          
  |--3-|  |--3--|  |--3-|  |--3--|     |--3-|  |--3--|  |--3--|    |---3---|   
  Q    E  E  E  E  Q    E  E  E  E     Q    E  E  E  E  E  E  E    E    E  E   
------------------------------------|-----------------------------------------|
------------------------------------|-----------------------------------------|
------------------------------------|-----------------------------------------|
------------------------------------|-----------------------------------------|
------------------------------------|-----------------------------------------|
--0----0--6--3--5--0----0--1--3--1--|--0----0--6--3--5--0--1--3--<>5br--L--3--|


  PM PM PM          PM PM PM           
  |--3--|  |--3--|  |--3--|  |--3--|   
  E  E  E  E  E  E  E  E  E  E  E  E   
--------------------------------------|
--------------------------------------|
--------------------------------------|
--------------------------------------|
--------------------------------------|
--0--0--0--6--3--5--0--0--0--1--3--1--|


  PM PM PM          PM PM PM   SH          
  |--3--|  |--3--|  |--3--|    |---3---|   
  E  E  E  E  E  E  E  E  E    E    E  E   
------------------------------------------|
------------------------------------------|
------------------------------------------|
------------------------------------------|
------------------------------------------|
--0--0--0--6--3--5--0--1--3--<>5br--L--3--|


  PM PM PM          PM PM PM           
  |--3--|  |--3--|  |--3--|  |--3--|   
  E  E  E  E  E  E  E  E  E  E  E  E   
--------------------------------------|
--------------------------------------|
--------------------------------------|
--------------------------------------|
--------------------------------------|
--0--0--0--6--3--5--0--0--0--1--3--1--|


  PM PM PM          PM PM PM   SH            PM PM PM   PH                   
  |--3--|  |--3--|  |--3--|    |---3---|     |--3--|    |---3---|            
  E  E  E  E  E  E  E  E  E    E    E  E     E  E  E    E    E  E  H         
------------------------------------------|---------------------------------|
------------------------------------------|---------------------------------|
------------------------------------------|---------------------------------|
------------------------------------------|---------------------------------|
------------------------------------------|---------------------------------|
--0--0--0--6--3--5--0--1--3--<>5br--L--3--|--0--1--3--<>5br--L--3-----------|


     PM PM PM    PM    PM PM PM    PM       PM PM PM    PM    PM PM PM    PM  
  |--3--|  |--3--|  |--3--|  |--3--|     |--3--|  |--3--|  |--3--|  |--3--|   
  E  E  E  E  E  E  E  E  E  E  E  E     E  E  E  E  E  E  E  E  E  E  E  E   
--------------------------------------|--------------------------------------|
--------------------------------------|--------------------------------------|
--------------------------------------|--------------------------------------|
--------------------------------------|--1-----------1-----1-----------1-----|
--5-----------5-----5-----------5-----|--------------------------------------|
-----5--0--5-----5-----5--0--5-----5--|-----5--1--5-----5-----5--1--5-----5--|


  PM PM PM PM PM PM PM PM PM PM PM PM       PM PM PM    PM    PM PM PM    PM  
  |--3--|  |--3--|  |--3--|  |--3--|     |--3--|  |--3--|  |--3--|  |--3--|   
  E  E  E  E  E  E  E  E  E  E  E  E     E  E  E  E  E  E  E  E  E  E  E  E   
--------------------------------------|--------------------------------------|
--------------------------------------|--------------------------------------|
--------------------------------------|--------------------------------------|
--------------------------------------|--------------------------------------|
--------------------------------------|--0-----------0-----0-----------5-----|
--8--7--5--7--8--7--8--7--5--7--8--0--|-----5--1--5-----1-----5--1--5-----1--|


     PM PM PM    PM    PM PM PM    PM       PM PM PM    PM    PM PM PM    PM  
  |--3--|  |--3--|  |--3--|  |--3--|     |--3--|  |--3--|  |--3--|  |--3--|   
  E  E  E  E  E  E  E  E  E  E  E  E     E  E  E  E  E  E  E  E  E  E  E  E   
--------------------------------------|--------------------------------------|
--------------------------------------|--------------------------------------|
--------------------------------------|--------------------------------------|
--------------------------------------|--1-----------1-----1-----------1-----|
--5-----------5-----5-----------5-----|--------------------------------------|
-----5--0--5-----5-----5--0--5-----5--|-----5--1--5-----5-----5--1--5-----5--|


  PM PM PM PM PM PM PM PM PM PM PM PM       PM PM PM    PM    PM PM PM    PM  
  |--3--|  |--3--|  |--3--|  |--3--|     |--3--|  |--3--|  |--3--|  |--3--|   
  E  E  E  E  E  E  E  E  E  E  E  E     E  E  E  E  E  E  E  E  E  E  E  E   
--------------------------------------|--------------------------------------|
--------------------------------------|--------------------------------------|
--------------------------------------|--------------------------------------|
--------------------------------------|--------------------------------------|
--------------------------------------|--0-----------0-----0-----------5-----|
--8--7--5--7--8--7--8--7--5--7--8--0--|-----5--1--5-----1-----5--1--5-----1--|


     PM PM PM    PM    PM PM PM    PM       PM PM PM    PM    PM PM PM    PM  
  |--3--|  |--3--|  |--3--|  |--3--|     |--3--|  |--3--|  |--3--|  |--3--|   
  E  E  E  E  E  E  E  E  E  E  E  E     E  E  E  E  E  E  E  E  E  E  E  E   
--------------------------------------|--------------------------------------|
--------------------------------------|--------------------------------------|
--------------------------------------|--------------------------------------|
--------------------------------------|--1-----------1-----1-----------1-----|
--5-----------5-----5-----------5-----|--------------------------------------|
-----5--0--5-----5-----5--0--5-----5--|-----5--1--5-----5-----5--1--5-----5--|


  PM PM PM PM PM PM PM PM PM PM PM PM       PM PM PM    PM    PM PM PM    PM  
  |--3--|  |--3--|  |--3--|  |--3--|     |--3--|  |--3--|  |--3--|  |--3--|   
  E  E  E  E  E  E  E  E  E  E  E  E     E  E  E  E  E  E  E  E  E  E  E  E   
--------------------------------------|--------------------------------------|
--------------------------------------|--------------------------------------|
--------------------------------------|--------------------------------------|
--------------------------------------|--------------------------------------|
--------------------------------------|--0-----------0-----0-----------5-----|
--8--7--5--7--8--7--8--7--5--7--8--0--|-----5--1--5-----1-----5--1--5-----1--|


     PM PM PM    PM    PM PM PM    PM       PM PM PM    PM    PM PM PM    PM  
  |--3--|  |--3--|  |--3--|  |--3--|     |--3--|  |--3--|  |--3--|  |--3--|   
  E  E  E  E  E  E  E  E  E  E  E  E     E  E  E  E  E  E  E  E  E  E  E  E   
--------------------------------------|--------------------------------------|
--------------------------------------|--------------------------------------|
--------------------------------------|--------------------------------------|
--------------------------------------|--1-----------1-----1-----------1-----|
--5-----------5-----5-----------5-----|--------------------------------------|
-----5--0--5-----5-----5--0--5-----5--|-----5--1--5-----5-----5--1--5-----5--|


  PM PM PM PM PM PM PM PM PM PM PM PM       PM PM PM    PM    PM PM PM    PM  
  |--3--|  |--3--|  |--3--|  |--3--|     |--3--|  |--3--|  |--3--|  |--3--|   
  E  E  E  E  E  E  E  E  E  E  E  E     E  E  E  E  E  E  E  E  E  E  E  E   
--------------------------------------|--------------------------------------|
--------------------------------------|--------------------------------------|
--------------------------------------|--------------------------------------|
--------------------------------------|--------------------------------------|
--------------------------------------|--0-----------0-----0-----------5-----|
--8--7--5--7--8--7--8--7--5--7--8--0--|-----5--1--5-----1-----5--1--5-----1--|


    PM PM PM PM PM    PM PM PM PM PM            PM PM    PM    PM PM PM PM     
    |--3--|  |--3--|  |--3--|  |--3--|     |--3-|  |--3--|  |--3--|  |--3--|   
    E  E  E  E  E  E  E  E  E  E  E  E     Q    E  E  E  E  E  E  E  E  E  E   
|---------------------------------------|-------------------------------------|
|---------------------------------------|-------------------------------------|
|*--------------------------------------|-------------------------------------|
|*--------------------------------------|-------------------------------------|
|---------------------------------------|-------------------------------------|
|---0--0--0--0--0-----0--0--0--0--0-----|-------0--0-----0-----0--0--0--0-----|


  PM PM PM PM PM    PM PM PM PM PM            PM PM    PM    PM PM PM PM       
  |--3--|  |--3--|  |--3--|  |--3--|     |--3-|  |--3--|  |--3--|  |--3--|     
  E  E  E  E  E  E  E  E  E  E  E  E     Q    E  E  E  E  E  E  E  E  E  E     
--------------------------------------|--------------------------------------||
--------------------------------------|--------------------------------------||
--------------------------------------|-------------------------------------*||
--------------------------------------|-------------------------------------*||
--------------------------------------|--------------------------------------||
--0--0--0--0--0-----0--0--0--0--0-----|-------0--0-----0-----0--0--0--0------||


  PM PM PM PM PM    PM PM PM PM PM            PM PM    PM    PM PM PM PM     
  |--3--|  |--3--|  |--3--|  |--3--|     |--3-|  |--3--|  |--3--|  |--3--|   
  E  E  E  E  E  E  E  E  E  E  E  E     Q    E  E  E  E  E  E  E  E  E  E   
--------------------------------------|-------------------------------------|
--------------------------------------|-------------------------------------|
--------------------------------------|-------------------------------------|
--------------------------------------|-------------------------------------|
--------------------------------------|-------------------------------------|
--0--0--0--0--0-----0--0--0--0--0-----|-------0--0-----0-----0--0--0--0-----|


  W                   W                                      
-------------------|-------------------|-------------------||
-------------------|-------------------|-------------------||
-------------------|-------------------|-------------------||
-------------------|-------------------|-------------------||
-------------------|-------------------|-------------------||
-------------------|-------------------|-------------------||




Duration Legend
---------------
W - whole
H - half
Q - quarter
E - 8th
S - 16th
T - 32nd
X - 64th
. - note dotted
|-n-|  - n-tuplets


Tablature Legend
----------------
L - tied note
x - dead note
g - grace note
(n) - ghost note
> - accentuded note
NH - natural harmonic
AH - artificial harmonic
TH - tapped harmonic
SH - semi harmonic
PH - pitch harmonic
h - hammer on
p - pull off
b - bend
br - bendRelease
pb - preBend
pbr - preBendRelease
brb - bendReleaseBend
\n/ - tremolo bar dip
\n - tremolo bar dive
-/n - tremolo bar Release up
/n\ - tremolo bar inverted dip
/n - tremolo bar return
-\n - tremolo bar Release down
S - shift slide
s - legato slide
/ -  slide into from below or out of upwards
\ -  slide into from above or out of downwards
~ - vibrato
W - wide vibrato
tr - trill
TP - tremolo picking
T - tapping
S - slap
P - pop
< - fade in
Tap to rate this tab
# A B C D E F G H I J K L M N O P Q R S T U V W X Y Z