Song name
# A B C D E F G H I J K L M N O P Q R S T U V W X Y Z

Lamb Of God - In Defense Of Our Good Name tab

Artist: LAMB OF GOD!
Song:   In Defense of Our Good Name
Tabber: Mr Sumo/Sumo Man
EMail:  Mrsumo95@aol.com, Any Questions?


E|--------------------------------------------------------||
B|--------------------------------------------------------||
G|--------------------------------------------------------||
D|--------------------------------------------------------||
A|---5h8p5--------5h8p5--------5h8p5--------5h8p5---------||
D|----------0--0---------0--0---------0--0---------0--0---||


E|--------------------------------------------------------||
B|--------------------------------------------------------||
G|--------------------------------------------------------||
D|--------------------------------------------------------||
A|---4h7p4--------4h7p4--------4h7p4--------4h7p4---------||
D|----------0--0---------0--0---------0--0---------0--0---||


E|--------------------------------------------------------||
B|--------------------------------------------------------||
G|--------------------------------------------------------||
D|--------------------------------------------------------||
A|---5h8p5--------5h8p5--------5h8p5--------5h8p5---------||
D|----------0--0---------0--0---------0--0---------0--0---||


E|--------------------------------------------------------||
B|--------------------------------------------------------||
G|--------------------------------------------------------||
D|--------------------------------------------------------||
A|---4h7p4--------4h7p4--------4h7p4--------4h7p4---------||
D|----------0--0---------0--0---------0--0---------0--0---||


E|----------------------||
B|----------------------||
G|----------------------||
D|----------------------|| 
                        
                    
Tap to rate this tab
 
# A B C D E F G H I J K L M N O P Q R S T U V W X Y Z